Oops, an error
Loading. Please wait.

Kalamazoo Tab

version 1
version 1

Whole song

Interactive

6,059 views 3 this week
no commentswrite comment
1 2 3 4 5
excellent!
x 3
add to favorites
launch autoscroll
font size
0
reset
how to read this tab
guitar tuner
Tab Pro tools
  • play this tab
  • loop segment
  • change instrument
  • show fretboard
  • metronome
×
Best way to learn
"Kalamazoo"
Autoscroll
slow
fast
+/-
esc
set tempo
stop
Contributor
Difficulty
intermediate
Artist: Primus
Song: Kalamazoo
Album: Brown Album (1997)
Tuning: e-B-G-D-A-E
Notes:~ - vibrato
/ - slide
h - hammer on
p - pull off

Intro:
e|--------------------------------|
B|--------------------------------|
G|--------------------------------|
D|--------------------------------|
A|--4~--------4~--------4~--------|
E|-------3~--------3~--------3//--|

Chorus:
e|------------------15----------------------15--14-15-16-15-14----------------------15---------------------15--|
B|--/15-15-14h15h16---------/15-15-14h15h16--------------------16---/15-15-14h15h16--------/15-15-14h15h16-----|
G|---------------------15--------------------------------------------------------------15----------------------|
D|-------------------------------------------------------------------------------------------------------------|
A|-------------------------------------------------------------------------------------------------------------|
E|-------------------------------------------------------------------------------------------------------------|

This part is played while Les is singing and might only be in live versions
e|--3---------3---------3---------3--|
B|--3---------3---------3---------3--|
G|-----------------------------------|
D|-----------------------------------|
A|-----------------------------------|
E|-----------------------------------|


Solo:   
e|----------------------------------------------------20-19--------19---------------------17-------|
B|--/15--------------17--17------------------------19-------19--17----17--16-16-16--16-------------|
G|---------16--------------17--17--16-17-19-17--17-------------------------------------17----------|
D|------------9/----------------------------------------------------------------------------17p16--|
A|------14-----------------------------------------------------------------------------------------|
E|-------------------------------------------------------------------------------------------------|

e|---------------------------------------------------------------------------------------------------------------|
B|-----------------------------------7-----5-----------------------------------------------------13----15----15/-|
G|-----------------17-17--5p4-4-------7-5---4----------------------------------------11p9h11-12----11----12-----|
D|--------14-17-16--------------5-7------------5--------7-7-8-8-9--7-7-9---9-10-12-12----------------------------|
A|--12-15----------------------------------------5-3-0-------------------7---------------------------------------|
E|---------------------------------------------------------------------------------------------------------------|

e|--17----------------------------------------------------18-------18----------------------|
B|-----17-19-----------15-17-15-15-16--16-19-----------17-------17----17-----15------------|
G|------------17-x-17~-----------------------17-17--15-------15----------15-----15-17-17---|
D|-----------------------------------------------------------------------------------------|
A|-----------------------------------------------------------------------------------------|
E|-----------------------------------------------------------------------------------------|
comments
We did not receive enough feedback on this tab! Please rate:
print report bad tab
1 2 3 4 5
I want to post or [tab]
guest
You may want to rate the tab now too:
select rating
Please do not post tabs as comments. Select "correction" instead!