Oops, an error
Loading. Please wait.

Lacquer Head Bass Tab

version 2
version 2

Whole song

Interactive

13,045 views 12 this week
8 commentsread comments
1 2 3 4 5
accurate
x 12
add to favorites
launch autoscroll
font size
0
reset
guitar tuner
Tab Pro tools
  • play this tab
  • loop segment
  • change instrument
  • show fretboard
  • metronome
×
Best way to learn
"Lacquer Head"
Autoscroll
slow
fast
+/-
esc
set tempo
stop
Contributor
#----------------------------------PLEASE NOTE---------------------------------#
#This file is the author's own work and represents their interpretation of the #
#song. You may only use this file for private study, scholarship, or research. #
#------------------------------------------------------------------------------##

                             LAUQUERHEAD (Bassline)
                              As recorded by Primus
                          (From the 1999 Album ANTIPOP)

Words and Music by Primus
Just taps randomly up the fret board with his thumb.


Gtr I (E A D G) - 'Untitled'

   Intro
    Q=113
   4/4
    Gtr I
    S S S S S S S S S S S S S S S S   S S S S S S S S S S S S S S S S
||------x-------x-------x-------x---|-----2-------2-------2-------2----||
||o---------------------------------|---------------------------------o||
||o---------------------------------|---------------------------------o||
||--x-x---x-x-x---x-x-x---x-x-x---x-|-x-x---x-x-x---x-x-x---x-x-x---x--||


    S S S S S S S S S S S S S S S S   S S S S S S S S S S S S S S S S
||------2-------2-------2-------2---|-----2-------2-------2-------2-----||
||o---------------------------------|----------------------------------o||
||o---------------------------------|----------------------------------o||
||--x-x---x-x-x---x-x-x---x-x-x---x-|-x-x---x-x-x---x-x-x---x-x-x---x---||


   Verse
    S S S S S S S S S S S S S S S S   S S S S S S S S S S S S S S S S
||------2-------2-------2-------2---|-------------2-------2-------2-----||
||o---------------------------------|----------------------------------o||
||o---------------------------------|-2h3------------------------------o||
||--x-x---x-x-x---x-x-x---x-x-x---x-|-----2h3-x-x---x-x-x---x-x-x---x---||


  S S S S S S S S S S S S S S S S   S S S S S S S S S S S S S S S S
|-----2-------2-------2-------2---|-----2-------2-------2-------2---|
|---------------------------------|---------------------------------|
|---------------------------------|---------------------------------|
|-x-x---x-x-x---x-x-x---x-x-x---x-|-x-x---x-x-x---x-x-x---x-x-x---x-|


  S S S S S S S S S S S S S S S S   S S S S S S S S S S S S S S S S
|-------------2---------------2---|-----2-------2-------2-------2---|
|---------------------------------|---------------------------------|
|-2h3-------------2h3-------------|---------------------------------|
|-----2h3-x-x---x-----2h3-x-x---x-|-x-x---x-x-x---x-x-x---x-x-x---x-|


    S S S S S S S S S S S S S S S S   S S S S S S S S S S S S S S S S   3x
||------2-------2-------2-------2---|-------------2-------2-------2-----||
||o---------------------------------|----------------------------------o||
||o---------------------------------|-2h3------------------------------o||
||--x-x---x-x-x---x-x-x---x-x-x---x-|-----2h3-x-x---x-x-x---x-x-x---x---||


 Chorus
  W          W
|-5--------|-8----|
|-5--------|-8----|
|-3--------|-6----|
|----------|------|


  S S E  Q   S S S S S S S S   S S E  Q   S S S S S S S S
|-------10\------------------|-------10\-------------------|
|-------10\------------------|-------10\-------------------|
|--------8\------------------|--------8\-------------------|
|-0-1--------2-2-2-5-2-2-2-5-|-0-1--------2-2-2-5-2-2-2-5--|


  W          W          S S E  Q   S S S S S S S S   S S E  Q   e E Q
|-5--------|-8--------|-------10\------------------|-------10\---------|
|-5--------|-8--------|-------10\------------------|-------10\---------|
|-3--------|-6--------|--------8\------------------|--------8\---------|
|----------|----------|-0-1--------2-2-2-5-2-2-2-5-|-0-1--------2------|


  S S E  Q   S S S S S S S S   S S E  Q   e E Q
|-------10\------------------|-------10\---------|
|-------10\------------------|-------10\---------|
|--------8\------------------|--------8\---------|
|-0-1--------2-2-2-5-2-2-2-5-|-0-1--------2------|


 Bass Solo # 1
  |----6----| |----6----| |----6----| |----6----|
  S S S S S S S S S S S S S S S S S S S S S S S S
|-------2-----------2-----------2-----------2-----|
|-------------------------------------------------|
|-------------------------------------------------|
|-3-0-3---3-0-3-0-3---3-0-3-0-3---3-0-3-0-3---3-0-|


  |----6----| |----6----| |---6---|
  S S S S S S S S S S S S S S S S E  E.S
|-------2-----------2-----------2--------|
|----------------------------------------|
|----------------------------------------|
|-3-0-3---3-0-3-0-3---3-0-3-0-3---0s15s0-|


 Verse 2
  S S S S S S S S S S S S S S S S   S S S S S S S S S S S S S S S S
|-----2-------2-------2-------2---|-----2-------2-------2-------2---|
|---------------------------------|---------------------------------|
|---------------------------------|---------------------------------|
|-x-x---x-x-x---x-x-x---x-x-x---x-|-x-x---x-x-x---x-x-x---x-x-x---x-|


    S S S S S S S S S S S S S S S S   S S S S S S S S S S S S S S S S
||------2-------2-------2-------2---|-------------2-------2-------2-----||
||o---------------------------------|----------------------------------o||
||o---------------------------------|-2h3------------------------------o||
||--x-x---x-x-x---x-x-x---x-x-x---x-|-----2h3-x-x---x-x-x---x-x-x---x---||


  S S S S S S S S S S S S S S S S   S S S S S S S S S S S S S S S S
|-----2-------2-------2-------2---|-----2-------2-------2-------2---|
|---------------------------------|---------------------------------|
|---------------------------------|---------------------------------|
|-x-x---x-x-x---x-x-x---x-x-x---x-|-x-x---x-x-x---x-x-x---x-x-x---x-|


  S S S S S S S S S S S S S S S S   S S S S S S S S S S S S S S S S
|-------------2---------------2---|-----2-------2-------2-------2---|
|---------------------------------|---------------------------------|
|-2h3-------------2h3-------------|---------------------------------|
|-----2h3-x-x---x-----2h3-x-x---x-|-x-x---x-x-x---x-x-x---x-x-x---x-|


    S S S S S S S S S S S S S S S S   S S S S S S S S S S S S S S S S
||------2-------2-------2-------2---|-------------2-------2-------2-----||
||o---------------------------------|----------------------------------o||
||o---------------------------------|-2h3------------------------------o||
||--x-x---x-x-x---x-x-x---x-x-x---x-|-----2h3-x-x---x-x-x---x-x-x---x---||


  S S S S S S S S S S S S S S S S   S S S S S S S S S S S S S S S S
|-----2-------2-------2-------2---|-----2-------2-------2-------2---|
|---------------------------------|---------------------------------|
|---------------------------------|---------------------------------|
|-x-x---x-x-x---x-x-x---x-x-x---x-|-x-x---x-x-x---x-x-x---x-x-x---x-|


 Chorus
  W          W          S S E  Q   S S S S S S S S
|-5--------|-8--------|-------10\------------------|
|-5--------|-8--------|-------10\------------------|
|-3--------|-6--------|--------8\------------------|
|----------|----------|-0-1--------2-2-2-5-2-2-2-5-|


  S S E  Q   S S S S S S S S
|-------10\--------------------|
|-------10\--------------------|
|--------8\--------------------|
|-0-1--------2-2-2-5-2-2-2-5---|


  W          W
|-5--------|-8----|
|-5--------|-8----|
|-3--------|-6----|
|----------|------|


  S S E  Q   S S S S S S S S   S S E  Q   S S S S S S S S
|-------10\------------------|-------10\------------------|
|-------10\------------------|-------10\------------------|
|--------8\------------------|--------8\------------------|
|-0-1--------2-2-2-5-2-2-2-5-|-0-1--------2-2-2-5-2-2-2-5-|


  S S E  Q   S S S S S S S S   S S E  Q   e Q.
|-------10\------------------|-------10\----------|
|-------10\------------------|-------10\----------|
|--------8\------------------|--------8\----------|
|-0-1--------2-2-2-5-2-2-2-5-|-0-1--------2-------|


   Bass Solo # 2
                     T T T T                    T T T T
    H       S   S  E S S S S   H       S   S  E S S S S
||---------------------------|--------------------------|
||o--------17----------------|--------18----------------|
||o------------16------------|------------17------------|
||--3b4----(3)-(3)---x-x-x-x-|-3b4----(3)-(3)---x-x-x-x-|


                   T T T T                    T T T T
  H       S   S  E S S S S   H       S   S  E S S S S     4x
|--------------------------|------------------------------||
|--------17----------------|--------18-------------------o||
|------------16------------|------------17---------------o||
|-3b4----(3)-(3)---x-x-x-x-|-3b4----(3)-(3)---x-x-x-x-----||


   Bass Solo # 3
              |-3-|                    |-3-|
    E E +S  S S S S E E Q    E E +S  S S S S E E Q
||------------5h7p5--------|-----------5h7p5--------|
||o------------------------|------------------------|
||o-5-5-(5)-x-------6-6----|-6-6-(6)-x-------5-5----|
||-------------------------|------------------------|


            |-3-|                    |-3-|     |-3-|
  E E +S  S S S S E E Q    E E +S  S S S S E E E E E
|-----------5h7p5--------|-----------5h7p5-----5-6-7----||
|------------------------|---------------------5-6-7---o||
|-5-5-(5)-x-------6-6----|-6-6-(6)-x-------5-5-3-4-5---o||
|------------------------|------------------------------||


 Chorus
  W          W          S S E  Q   S S S S S S S S
|-5--------|-8--------|-------10\------------------|
|-5--------|-8--------|-------10\------------------|
|-3--------|-6--------|--------8\------------------|
|----------|----------|-0-1--------2-2-2-5-2-2-2-5-|


  S S E  Q   S S S S S S S S
|-------10\--------------------|
|-------10\--------------------|
|--------8\--------------------|
|-0-1--------2-2-2-5-2-2-2-5---|


  W          W            S S E  Q   S S S S S S S S
|-5--------|-8--------||--------10\------------------|
|-5--------|-8--------||o-------10\------------------|
|-3--------|-6--------||o--------8\------------------|
|----------|----------||--0-1--------2-2-2-5-2-2-2-5-|


  S S E  Q   S S S S S S S S    3x
|-------10\---------------------||
|-------10\--------------------o||
|--------8\--------------------o||
|-0-1--------2-2-2-5-2-2-2-5----||


 Outro
  S S E  Q   S S E  Q     S S E  Q   S S E  Q
|-------10\--------10\--|-------10\--------10\--|
|-------10\--------10\--|-------10\--------10\--|
|--------8\---------8\--|--------8\---------8\--|
|-0-1--------0-1--------|-0-1--------0-1--------|


  S S E  Q   S S E  Q     S S E  Q   S S E  Q
|-------10\--------10\--|-------10\--------10\---|
|-------10\--------10\--|-------10\--------10\---|
|--------8\---------8\--|--------8\---------8\---|
|-0-1--------0-1--------|-0-1--------0-1---------|


  W          +W           +W
|-5--------|-(5)--------|-(5)----*|
|-5--------|-(5)--------|-(5)----*|
|-3--------|-(3)--------|-(3)----*|
|----------|------------|--------*|


Duration Legend
---------------
W - whole; H - half; Q - quarter; E - 8th; S - 16th; T - 32nd; X - 64th; a - acciaccatura
+ - note tied to previous; . - note dotted; .. - note double dotted
Uncapitalized letters represent notes that are staccato (1/2 duration)
Irregular groupings are notated above the duration line
Duration letters will always appear directly above the note/fret number it represents the
duration for.  Duration letters with no fret number below them represent rests.  Multi-
bar rests are notated in the form Wxn, where n is the number of bars to rest for.  Low
melody durations appear below the staff

Tablature Legend
----------------
 h   - hammer-on
 p   - pull-off
 b   - bend
 pb  - pre-bend
 r   - bend release (if no number after the r, then release immediately)
 /\  - slide into or out of (from/to "nowhere")
 s   - legato slide
 S   - shift slide
  - natural harmonic
[n]  - artificial harmonic
n(n) - tapped harmonic
 ~   - vibrato
 tr  - trill
 T   - tap
 TP  - trem. picking
 PM  - palm muting
\n/  - tremolo bar dip; n = amount to dip
 \n  - tremolo bar down
 n/  - tremolo bar up
/n\  - tremolo bar inverted dip
 =   - hold bend; also acts as connecting device for hammers/pulls
 <>  - volume swell (louder/softer)
 x   - on rhythm slash represents muted slash
 o   - on rhythm slash represents single note slash

Misc Legend
-----------
 |  - bar
||  - double bar
||o - repeat start
o|| - repeat end
*|  - double bar (ending)
 :  - bar (freetime)
 $  - Segno
 &  - Coda
Tempo markers -  = BPM(8/16=s8/s16), where s8 = swing 8ths, s16 = swing 16ths
comments
print report bad tab
8 comments total. Showing first comments.
0 reply
acobjoe wrote on April 18 2006, 08:03 pm

Insane. If you can actually play this, wow.

0 reply
harl91 wrote on May 12 2006, 07:33 pm

good tab, remember when your doing the main muting part to do three slaps on the top E and then pop the bottem G, its not all slapping

0 reply
benttwig33 wrote on January 29 2007, 01:00 am

Its not insanely hard, but you have to know what your doing to do it right.

Very nice tab.

I want to post or [tab]
guest
You may want to rate the tab now too:
select rating
Please do not post tabs as comments. Select "correction" instead!