Oops, an error
Loading. Please wait.

Lacquer Head bass

version 3
version 3

Whole song

Interactive

by Primus
3,622 views 42 this week
no commentswrite comment
1 2 3 4 5
2 more votes to show rating
add to favorites
×
Save as Personal and add changes to this tab that will be seen only by you. Learn more ›
×
You can save this tab as Personal to edit and correct it or add notes. All changes will be seen only by you. Learn more »
launch autoscroll
font size
0
reset
guitar tuner
edit
Autoscroll
slow
fast
+/-
esc
set tempo
stop
Difficulty
intermediate
Intro 
G|--2---2|
D|-------| X20
A|-------|  
E|xx-xxx-|

Verse 1
G|---2---2---2---2-----------2---2---2---2---2---2---2------|
D|----------------------------------------------------------| 
A|-----------------2h3--------------------------------2h3---|
E|xxx-xxx-xxx-xxx-----2h3-xxx-xxx-xxx-xxx-xxx-xxx-xx----2h3-|

G|---2---2---2---2---2---2---2---2----------2--------|
D|---------------------------------------------------|
A|---------------------------------2h3----xx-x-2h3---|
E|xxx-xxx-xxx-xxx-xxx-xxx-xxx-xxx-----2h3---------2h3|

(repeat verse 1)

Chorus pt.1
G|------------------------|
D|-5~(4 beats)-8~(4 beats)|
A|-3~(4 beats)-6~(4 beats)|
E|------------------------|

Chorus pt.2
G|------5~(1/2 beat)----------------5~(1/2 beat)-----------|
D|------5~(1/2 beat)----------------5~(1/2 beat)-----------|
A|------3~(1/2 beat)----------------3~(1/2 beat)-----------|
E|-0h2---------------0h2-202-2-0h2---------------0h2-202-2-|

(repeat chorus pt.1)

(repeat chorus pt.2)X4 without 202-2 at end of 4th time.

Solo
G|-----2------2|
D|-------------| X6 with slide on 1st string from 14 to 0 on 7th time.
A|-------------|
E|-303---0303--|

(repeat verse)

(repeat chorus pt.1&2)

Bridge
G|------12--|
D|--------12| X21
A|----------|
E|-12/1-----|

Bridge Solo
G|-----3h5h3----|
D|--------------| X8
A|--------------|
E|-3-3-------3-3|

(repeat chorus)

Outro
G|-----5~(1/2 beat)|    G|-0~|
D|-----5~(1/2 beat)| X8 D|-0~| until song fades out and stops
A|-----3~(1/2 beat)|    A|-0~|
E|-0h3-------------|    E|---|

            
            
Suggest correction
Creating personal tab
Creating personal tab
You can edit any tab online and save it as your Personal.

You can edit, replace or remove any tab part or add personal notes – all changes will be seen only by you.

Personal tabs can be accessed anytime from any device, even offline.
Learn more »
Give kudos to tab author, rate the tab!
1 2 3 4 5
comments
print report bad tab
guest
Wanna post a correction for this tab? Suggest correction