Oops, an error
Loading. Please wait.

Last Salmon Man bass

version 1
version 1

Whole song

by Primus
4,540 views 9 this week
1 commentread comment
1 2 3 4 5
x 6
add to favorites
×
Save as Personal and add changes to this tab that will be seen only by you. Learn more ›
×
You can save this tab as Personal to edit and correct it or add notes. All changes will be seen only by you. Learn more »
launch autoscroll
font size
0
reset
guitar tuner
edit
Autoscroll
slow
fast
+/-
esc
set tempo
stop
Author
Since there are no bass tab for this song I thought i'd post the one I was working on. 
Basically, verses are the intro with slight variation/ jams. I'll tab out the solo when 
I'll figure it out. I hope it's as good as I hear it.

Tuning:
Intro,verse and solo(during the solo, at one point the pitch shifts from D to G and the 
riff changes but i can't figure it out for now)
G|---------------------------------------------------------------------------|
D|---------------------------------------------------------------------------|
A|-------5---5---5h-0-5h-0-5h-as long as you feel like it then-5---5///8--7--|
E|---------------------------------------------------------------------------|
Riff
G|---------------------------------------------------------------------------|
D|--------------------------------3---2--------------------------------------|
A|------5---3---5---0---2---3------------------------------------------------|
E|---------------------------------------------------------------------------|

Chorus (Probably not 100% correct)
G|---------------------------------------------------------------------------|
D|-----------------------------3--5--7--5-3--5--2--0----------------3--5--7~-|
A|----------------------3--5-----------------------------------3--5----------|
E|---------------3--6------------------------------------3--6----------------|

G|--------------------------------------------------------------------------------|
D|-----------------------------3--5--7--5-3--5--2--0----------------3--5--7~-3-2--|
A|----------------------3--5-----------------------------------3--5---------------|
E|---------------3--6------------------------------------3--6---------------------|

Bridge  thingy (Not sure at all)
G|--------------------------------------------------------------------------------------|
D|--------------------------------------------------------------------------------------|
A|--------5~----7--10--8--7--8--7--8--7--3---5------------------------------------------|
E|--------------------------------------------------------------------------------------|

| /  slide up
| \  slide down
| h  hammer-on
| p  pull-off
| ~  vibrato
| +  harmonic
| x  Mute note
===============================================================================
Suggest correction
Creating personal tab
Creating personal tab
You can edit any tab online and save it as your Personal.

You can edit, replace or remove any tab part or add personal notes – all changes will be seen only by you.

Personal tabs can be accessed anytime from any device, even offline.
Learn more »
comments
print report bad tab
1 comment total.
0 reply
BlackWolf24 284 Dec 28, 2013 01:41 AM

The notes are ok... But it's nothing like Claypool plays it. Start with some chords, if you do the notes in chords you will come further.

7 7 7 10 9
7 7 7 10 9
5 5 5 8 7
x x x x x

Start with that...

guest
You may want to rate the tab now too:
select rating
Wanna post a correction for this tab? Suggest correction