Oops, an error
Loading. Please wait.

Lee Van Cleef Bass Tab

version 2
version 2

Whole song

Interactive

3,811 views 6 this week
no commentswrite comment
1 2 3 4 5
please rate
add to favorites
launch autoscroll
font size
0
reset
guitar tuner
Autoscroll
slow
fast
+/-
esc
set tempo
stop
Help us to improve Ultimate-Guitar.com Take our survey!
×
I couldn’t find a good bass tab anywhere so I decided to make my own. The technique I
use as far as the intro/verse is the double thump slap, if you don’t know what this is or
can’t quite do it, this tab may not be much help, but if you can, well then I hope you 
find it pretty close. Ie. Double thump is a bass technique where you play like slap and
pop, but it incorporates a pop with your thumb on the upbeat.

Key:
v-double thump down
^-double thump up
h-hammer on
p-pull off
s-slap
p-pop
x-mute note
^^-finger vibrato



    v    ^ s v  ^  v s v  ^    v s v  ^  v^ s v  ^    v s v  ^  v s v  ^    v s v  ^   v
  ^   v
G|------------------------------------------------------------------------------------------------|
D|-4h5^^-5---x-4h5-5---x-4h5^^-5---x-4h5-xx---x-4h5^^-5---x-4h5-5---x-4h5^^-5---------------------|
A|---------5---------5-----------5---------4h5----------5---------5-----------5-x-0h5-0h4-0h3-0h2-|
E|------------------------------------------------------------------------------------------------|
											    2x
    S  p s v^ ps s   p s p s p v^ p s v^ p s s   p s p s p s   p s v^ ps s   p s v   ^
v   ^
G|-----x------x------x---x---x----x------x-------x---x---x-----x------x------x--------------------|
D|---------------------------------------------------------------2-------------2------------------|
A|-------2--------------------------2----------------------0h3-----33--2-3^^-----0h5-0h4-0h3-0h2--|
E|-0h3-----33--2-3^^---x---x---33-----33---2-3^^---x---x------------------------------------------|

   v     ^ s v ^   v s v ^     v s v ^   v^s   v ^   p s v^ ps s   p s v   ^   v   ^
G|---------------------------------------------------x------x------x------------------------------|
D|-4h5^^-5---x-4h5-5---x-4h5^^-5---x-4h5-xx------------2-------------2----------------------------|
A|---------5---------5-----------5---------4h5-x-0h3-----33--2-3^^-----0h5-0h4-0h3-0h2------------|
E|------------------------------------------------------------------------------------------------|

   v     ^ s v ^   v s v ^     v s v ^   v^s  v ^     v s v ^   v s v ^     v s v ^   v
 ^   v
G|------------------------------------------------------------------------------------------------|
D|-4h5^^-5---x-4h5-5---x-4h5^^-5---x-4h5-xx---x-4h5^^-5---x-4h5-5---x-4h5^^-5---------------------|
A|---------5---------5-----------5---------4h5----------5---------5-----------5-x-0h5-0h4-0h3-0h2-|
E|------------------------------------------------------------------------------------------------|

And im pretty sure he repeats all of this twice and thats the song.
Suggest correction
Give kudos to tab author, rate the tab!
1 2 3 4 5
comments
print report bad tab
guest
You may want to rate the tab now too:
select rating
Please do not post tabs as comments. Select "correction" instead!