Oops, an error
Loading. Please wait.

Mary The Ice Cube bass

version 2
version 2

Whole song

Interactive

by Primus
4,605 views 12 this week
2 commentsread comments
1 2 3 4 5
x 5
add to favorites
×
Save as Personal and add changes to this tab that will be seen only by you. Learn more ›
×
You can save this tab as Personal to edit and correct it or add notes. All changes will be seen only by you. Learn more »
launch autoscroll
font size
0
reset
guitar tuner
edit
Autoscroll
slow
fast
+/-
esc
set tempo
stop
Author
Difficulty
This is a copy from MXTabs.com, poster: rhill555
I (Horazonblade) just simply formatted to be played on a 4 String.
Artist: Primus
Song: Mary the Ice Cube
Album: Animals Should Not Try to Act Like People (2003)
Tuning: E-A-D-G

(-3-) - Triplet
/ - Slide Up
\ - Slide Down
h - Hammer-On
p - Pull-Off
v - Flamenco downstroke


Intro: Delay effect
G|----------12-14----17-19-17-20\--------12-14----20\--|
D|-------14-------12------------------14-------12------|
A|--0/12---------------------------12------------------|
E|-----------------------------------------------------|

G|--------12-14----17-19p17h20\-------12-14----21\--|
D|-----14-------12-----------------14-------12------|
A|--12--------------------------12------------------|
E|--------------------------------------------------|

G|---------------------------------|
D|---------------------------------|
A|-0/12-12-12-12-12-12-12-12-12\\--|
E|---------------------------------| (x2)

G|----------12-14----17-19-17-20\--------12-14----21\19\17\--|
D|-------14-------12------------------14-------12------------|
A|--0/12---------------------------12------------------------|
E|-----------------------------------------------------------|

                                                 (---3---)
G|----------12-14----17-19-17-20\--------12-14----20-20-20-19-17-12h14-----|
D|-------14-------12------------------14-------12----------------------14--|
A|--0/12---------------------------12--------------------------------------|
E|-------------------------------------------------------------------------|


Chorus:
G|-------------------------------------------------|
D|-------------------------------------------------|
A|-0-0-0--0-0-0--0-0--0--0-0-0-0-0--0-0-0-0--0-0-0-|
E|-------------------------------------------------|

G|-------------------------12h14-14-12h14-14-12h14-14-12h14-14-12-----|
D|----------------------------------------------------------------14--|
A|--0-0-0--0-0-0---0-0--0---------------------------------------------|
E|--------------------------------------------------------------------|

G|---------------------------------------------------|
D|---------------------------------------------------|
A|--0-0-0--0-0-0--0-0--0--0-0-0-0-0--0-0-0-0--0-0-0--|
E|---------------------------------------------------|

G|---------------23\--|
D|--------------------|
A|--0-0-0--0-0-0------|
E|--------------------|


Verse                                            (---3---)
G|----------12-14----17-19-17-20\--------12-14----20-20-20-19-22--|
D|-------14-------12------------------14-------12-----------------|
A|--0/12---------------------------12-----------------------------|
E|----------------------------------------------------------------|

G|--------12-14----20\19\3/5---------12-14----23-23\22\21\19--|
D|-----14-------12----------------14-------12-----------------|
A|--12-------------------------12-----------------------------|
E|------------------------------------------------------------|


Chorus: The chord is played lightly      v 
G|---------------------------------------7/8-------|
D|---------------------------------------7/8-------|
A|--0-0-0--0-0-0--0-0--0--0-0-0-0-0--0-0----0-0-0--|
E|-------------------------------------------------| (x3)

                              |--Tap this 4x--|
G|-----------------------------15-20-15-20-15------|
D|-------------------------------------------------|
A|--0-0-0--0-0-0--0-0--0--0--0---------------------|
E|-------------------------------------------------|
                                         v
G|---------------------------------------7/8-------|
D|---------------------------------------7/8-------|
A|--0-0-0--0-0-0--0-0--0--0-0-0-0-0--0-0----0-0-0--|
E|-------------------------------------------------|

G|---------------------------------------------------|
D|---------------------------------------------------|
A|--0-0-0--0-0-0--0-0--0--0-0-0-0-0--0-0-0-0--0-0-0--|
E|---------------------------------------------------|
                                         v
G|---------------------------------------7/8-------|
D|---------------------------------------7/8-------|
A|--0-0-0--0-0-0--0-0--0--0-0-0-0-0--0-0----0-0-0--|
E|-------------------------------------------------|

       Play as you slide \/
G|-----------------------15/20/////---|
D|------------------------------------|
A|--0-0-0--0-0-0--0-0--0--------------|
E|------------------------------------|

Verse:                                      (--3---)
G|--------12-14----17-17-20--------12-14----22-22-22-22--20-20-17-19-17-14--|
D|-----14-------12--------------14-------12---------------------------------|
A|--12-----------------------12---------------------------------------------|
E|--------------------------------------------------------------------------|

G|--20-20-20-20-22-22-22-22-19--17-19-27-14-9\--------------------|
D|----------------------------------------------------------------|
A|---------------------------------------------0-0-3/5/7/8/10/12--|
E|----------------------------------------------------------------|

G|--------------------------------2//3--------------------------------2//3-|
D|--------------------------------2//3--------------------------------2//3-|
A|-0--0-0--0-0--0--0--0--0--0-0-0------0--0-0--0-0--0--0--0--0--0-0-0------|
E|-------------------------------------------------------------------------|

G|--------------------------------2//3--------------------------------2//3-|
D|--------------------------------2//3--------------------------------2//3-|
A|-0--0/10\/10\/10\0--0--0--0-0-0------0--0-0--0-0--0--0--0--0--0-0-0------|
E|-------------------------------------------------------------------------|

G|--------------------------------2//3--------------------------------2//3-|
D|--------------------------------2//3--------------------------------2//3-|
A|-0--0-0--0-0--0--0--0--0--0-0-0------0--0-0--0-0--0--0--0--0--0-0-0------|
E|-------------------------------------------------------------------------| (x3)


Bass Solo:         (---3---)
G|---------12-14----17-17-17-20-20-------12-14----19-20-19-22-22\--|
D|------14-------12-------------------14-------12------------------|
A|--/12----------------------------12------------------------------|
E|-----------------------------------------------------------------|

G|---------12-14----19-20-19-22-19-20-19--|
D|------14-------12-----------------------|
A|--/12-----------------------------------|
E|----------------------------------------|

G|--------12-14-12-14-17-14-17-19-20-19-17-14--|
D|-----14--------------------------------------|
A|--12-----------------------------------------|
E|---------------------------------------------|

G|-------17-12-14-12-15-17-19-17-14-17-19-20-19-17-14--|
D|-----------------------------------------------------|
A|--xx12-----------------------------------------------|
E|-----------------------------------------------------|

Exact solo is still in work, for now, improv off of the above riffs

G|--------------------------------2//3--------------------------------2//3-|
D|--------------------------------2//3--------------------------------2//3-|
A|-0--0-0--0-0--0--0--0--0--0-0-0------0--0-0--0-0--0--0--0--0--0-0-0------|
E|-------------------------------------------------------------------------| (x3)

G|--------------------------------2//3-----------------------------------------|
D|--------------------------------2//3-----------------------------------------|
A|-0--0-0--0-0--0--0--0--0--0-0-0------0--0-0--0-0--0--0--0--0--0/11-11-11-11--|
E|-----------------------------------------------------------------------------|


Verse: With Envelope Filter and Distortion

G|---------12-14----17-20-20--------12-14----17-20-20--|
D|------14-------12--------------14-------12-----------|
A|--/12-----------------------12-----------------------|
E|-----------------------------------------------------|

G|--------12-14----17-20-20-20-20-------12-14----15\\\\\\\\\--|
D|-----14-------12-------------------14-------12--------------|
A|--12----------------------------12--------------------------|
E|------------------------------------------------------------|

G|-------------------------------------------------------------------|
D|-------------------------------------------------------------------|
A|--8-8-8-8-6-6-6-6-8-8-8-8-6-6-6-6-8-8-8-8-6-6-6-6-5-5-5-5----------|
E|----------------------------------------------------------8-6-3-1--|


Outro: Clean except delay
G|---------12-14----20-20-20--|
D|------14-------12-----------|
A|--/12-----------------------|
E|----------------------------|

            
            
Suggest correction
Creating personal tab
Creating personal tab
You can edit any tab online and save it as your Personal.

You can edit, replace or remove any tab part or add personal notes – all changes will be seen only by you.

Personal tabs can be accessed anytime from any device, even offline.
Learn more »
comments
print report bad tab
2 comments total.
0 reply
Will-eh 221 Sep 18, 2006 05:40 PM

Awesome tab man.I use both versions,one for my four string,one for the six :P
peace
will-

0 reply
Nuke97 31 Jul 26, 2009 04:53 PM

Thank you for postimg this ! this is a great 4 string version.

guest
You may want to rate the tab now too:
select rating
Wanna post a correction for this tab? Suggest correction