Oops, an error
Loading. Please wait.

Master Of Puppets Bass Tab

version 2
version 2

Whole song

Interactive

14,237 views 6 this week
11 commentsread comments
1 2 3 4 5
x 5
add to favorites
launch autoscroll
font size
0
reset
guitar tuner
Autoscroll
slow
fast
+/-
esc
set tempo
stop
Help us to improve Ultimate-Guitar.com Take our survey!
×
Author
Tabbers playing skills
beginner ++
“Master of Puppets” originally by Metallica
Covered by Primus
Bass part by Les Claypool
Tabbed by Dan Bogosian (UtBDan)
Visit Dan’s band at:
www.utbrocks.com

KEY:
/ - slide
\ - slide, but um. Downwards. Lol
S – Slap
V – downstroke but with thumb (keep the slap position)


VERY BEGINNING
  SS     S         S      S
G------------------------------|
D------------------------------|
A------------------------------|
E-00-----0/12~~~~--10-----12\7-|

INTRO
    SSSSSS  V  V  V  SSSSS  S  S  S
G-----------7--6--5-------------------|
D-----------7--6--5-------------------|
A-----7--6--5--4--3----2--1-0h2-------|
E---00-00------------00-00-----0--0---|

“VERSE”
  SSSSSSSSSSSSSSSS
G------------------|
D------------------|
A---2--3--4--3--22-|
E-00-00-00-00-00---|

  SSSSSSSSSSSSSSS
G-----------------|
D-----------------|
A---2--3--4--3--2-|
E-00-00-00-00-00--|

  SSSSSSSSSSSSSSSS
G------------------|
D------------------|
A---2--3--4--3--22-|
E-00-00-00-00-00---|

  SSSSSSSSS     S
G---------------------|
D---------------------|
A---2--3--------------|
E-00-00-004p3p2-4p3p2-|

  SSSSSSSSSSSSSSSS
G------------------|
D------------------|
A---2--3--4--3--22-|
E-00-00-00-00-00---|

  SSSSSSSSSSSSSSS
G-----------------|
D-----------------|
A---2--3--4--3--2-|
E-00-00-00-00-00--|

  SSSSSSSSSSSSSSSS
G------------------|
D------------------|
A---2--3--4--3--22-|
E-00-00-00-00-00---|

  SSSSSSSSS     S
G---------------------|
D---------------------|
A---2--3--------------|
E-00-00-004p3p2-4p3p2-|

  SSSSSSSSSSSSSSSSSSSSSS
G-----15----15----151515\-|
D-1414--1414--1414--------|
A-------------------------|
E-------------------------|
Suggest correction
comments
print report bad tab
11 comments total. Showing first comments.
0 reply
sexy-man 30 Dec 04, 2005 07:40 PM

in the verse its a hammer onto 1 not 00 its 0h1

0 reply
UtBDan 1,977 Dec 05, 2005 08:34 AM

not in the Primus version.

0 reply
acobjoe 212 May 15, 2006 08:04 PM

Almost everything on the A string is popped, not slapped. But all the notes are right so good tab.

guest
You may want to rate the tab now too:
select rating
Wanna post a correction for this tab? Suggest correction