Oops, an error
Loading. Please wait.

Mr Krinkle bass

version 3
version 3

Whole song

Interactive

by Primus
7,542 views 6 this week
3 commentsread comments
1 2 3 4 5
x 12
add to favorites
×
Save as Personal and add changes to this tab that will be seen only by you. Learn more ›
×
You can save this tab as Personal to edit and correct it or add notes. All changes will be seen only by you. Learn more »
launch autoscroll
font size
0
reset
guitar tuner
edit
Autoscroll
slow
fast
+/-
esc
set tempo
stop
Difficulty
G|---------------------------------------------------------|
D|---------------------------------------------------------|
A|-6-5-3-5-6-5-3-5----6-5-3-5-6-5-3-5---6-5-3-5-6-5-3-5----|
E|-----------------1/-----------------------------------1/-|

G|----------------------------|
D|-------3--------------3-----|
A|-5-3-5---5-3--0-5-3-5---5-0-|
E|----------------------------|

G|------------------|
D|------------------|
A|---------6----5---|
E|--4---------------|


G|-------6-----------------|
D|-8-6-8---8-6---------3---|
A|-------------0-5-3-5---5-|
E|-------------------------|
Suggest correction
Creating personal tab
Creating personal tab
You can edit any tab online and save it as your Personal.

You can edit, replace or remove any tab part or add personal notes – all changes will be seen only by you.

Personal tabs can be accessed anytime from any device, even offline.
Learn more »
comments
print report bad tab
3 comments total.
+2 reply
Hamburger Train 1,042 Jul 19, 2007 05:01 PM

pretty damn close considering this is played on an upright with a bow

0 reply
NothingShocking 20 Jan 02, 2017 12:37 AM

Pretty near perfect, good job mate

0 reply
NothingShocking 20 Jan 02, 2017 12:37 AM

Pretty near perfect, good job mate

guest
Wanna post a correction for this tab? Suggest correction