Oops, an error
Loading. Please wait.

My Name Is Mud bass

version 4
version 4

Whole song

by Primus
16,330 views 24 this week
no commentswrite comment
1 2 3 4 5
x 5
add to favorites
×
Save as Personal and add changes to this tab that will be seen only by you. Learn more ›
×
You can save this tab as Personal to edit and correct it or add notes. All changes will be seen only by you. Learn more »
launch autoscroll
font size
0
reset
guitar tuner
backing track
0:00
0:00
edit
Autoscroll
slow
fast
+/-
esc
set tempo
stop
Author
----------------------------------------------------------------------------
		MY NAME IS MUD (LIVE) - Primus
----------------------------------------------------------------------------

Tabbed By : Julius Goddard
e-mail: d_geezer@hotmail.co.uk

Tabbed for a Standard 4 string bass (BETTER if fretless...), therefore is edited to make 
the song possible,

All slapped apart from verse which is forearm/palm muted
All Harmonics played anyway which is humanly possible

Tuning: Standard

G|---------------------|-------------------5+|-----------------5+|
D|----------4/------4/-|----------4/-------5+|---------4/------5+|
A|-3/4-x-4----x4-44----|-3/4-x-4-----x4-44-5+|-3/4-x-4---x4-44-5+|
E|---------------------|---------------------|-------------------|

G|-----------------------|
D|----------4/------5-11\|
A|-3/4-x-4-----x4-44-----|
E|-----------------------|

G|----------------------------|x3
D|-------------5-------------5|
A|-3h4-4-3h4-4---3h4-4-3h4-4--|
E|----------------------------|

G|------------------------------|x1
D|--------------5-5--------5-5-5|
A|-3h4-4-3h4-4------3h4-4-------|
E|------------------------------|

Strictly here you should move up an octave here, but if your bass only has four strings 
gets a bit ridiculous...

G|----------------------------|x4
D|-------------5-------------5|
A|-3h4-4-3h4-4---3h4-4-3h4-4--|
E|----------------------------|

My Name Is Mud...

This section is played with palm muting in the left hand 1st Finger on 2nd Fret (barred) 
right forearm muting the strings, and alternatively hitting the bass with your thumb 
fingers (watch Primus Live Woodstock on youtube)


G|--------------------------|x15
D|--------------------------|
A|-xxxxxxxxxx-xxxxxxxxxxxx--|
E|--------------------------|

SOLO

G|----------------------------|x3
D|-------------5-------------5|
A|-3h4-4-3h4-4---3h4-4-3h4-4--|
E|----------------------------|

G|------------------------------|x1
D|--------------5-5--------5-5-5|
A|-3h4-4-3h4-4------3h4-4-------|
E|------------------------------|

G|------------------------------|----------------------------|
D|-------------5--------------5-|-------------5-----------5--|
A|-3h4-4-3h4-4---3h4-4-3h4-4----|-3h4-4-3h4-4---3h4-3h4-4---4|
E|------------------------------|----------------------------|

G|-----------------------------|--------------------------------|
D|---------------------------5-|-------------5-2h3--------------|
A|-3h4-4-3h4-4---3h4-4-3h4-4---|-3h4-4-3h4-4-------2h3---4/5----|
E|-------------3---------------|-----------------------2-----0--|

G|-----------------------------|--------------------------------|
D|-------------5-------------5-|-------------5--------------5-6\|
A|-3h4-4-3h4-4---3h4-4-3h4-4---|-3h4-4-3h4-4----3h4-4-3h4-4-----|
E|-----------------------------|--------------------------------|

G|-----------------------------|------------------------------------|
D|-------------5-------------5-|-------------4/5-4/5----------------|
A|-3h4-4-3h4-4---3h4-4-3h4-4---|-3h4-4-3h4-4---------3h4-4-3h4-4-4\-|
E|-----------------------------|------------------------------------|

G|-------------------------------|------------------------------|
D|-------------5-----------------|------------------------------|
A|-3h4-4-3h4-4---3h4-4-3h4-4--6\-|-3h4-4-3h4-4-4-3h4-4-3h4-4-4/-|
E|-------------------------------|------------------------------|

G|-------------------------------|------------------------------|
D|-------------5-------------5\--|-------------5----------------|
A|-3h4-4-3h4-4---3h4-4-3h4-4-----|-3h4-4-3h4-4--3h4-4-3h4-4-4/--|
E|-------------------------------|------------------------------| MY NAME IS MUD

2nd VERSE


G|-------------------------|x19
D|-------------------------|
A|-xxxxxxxxxxx-xxxxxxxxxxxx|
E|-------------------------|

MY NAME IS MUD

G|------------------------------|---------------------------|x3
D|-------------5--------------5-|-------------5-------------|
A|-3h4-4-3h4-4---3h4-4-3h4-4----|-3h4-4-3h4-4---3h4-3h4-4---|
E|------------------------------|---------------------------|


G|--------------------------------|x1
D|-------------5------------------|
A|-3h4-4-3h4-4---3h4-4-3h4-4------|
E|---------------------------3\---|

G|------------------------------|----------------------------|x2
D|------------------------------|-------------5-----------5\-|
A|-3h4-4-3h4-4---3h4-4-3h4-4----|-3h4-4-3h4-4---3h4-3h4-4----|
E|-------------5--------------5/|----------------------------|

G|------------------------------|----------------------------|x2
D|-------------5--------------5-|-------------5-----------5--|
A|-3h4-4-3h4-4---3h4-4-3h4-4----|-3h4-4-3h4-4---3h4-3h4-4----|
E|------------------------------|----------------------------|


WHERE ARE YOU GOING CITY BOY ?


G|------------------------------|----------------------------|
D|-------------5--------------5-|-------------5-----------5--|
A|-3h4-4-3h4-4---3h4-4-3h4-4----|-3h4-4-3h4-4---3h4-3h4-4---4|
E|------------------------------|----------------------------|

G|------------------------------|-----------------------------------|
D|-------------5--------------5-|-------------4h5-4h5---------------|
A|-3h4-4-3h4-4---3h4-4-3h4-4----|-3h4-4-3h4-4----------3h4-3h4-4 2/3|
E|------------------------------|-----------------------------------|


G|------------------------------|----------------------------|
D|-------------5--------------5-|-------------5-----------5--|
A|-3h4-4-3h4-4---3h4-4-3h4-4----|-3h4-4-3h4-4---3h4-3h4-4---4|
E|------------------------------|----------------------------|


G|------------------------------|------------------------------------|
D|-------------5--------------5-|-------------5h6-6h7-0h1----5h6-----|
A|-3h4-4-3h4-4---3h4-4-3h4-4----|-3h4-4-3h4-4------------4h5------4h5|
E|------------------------------|------------------------------------|


G|------------------------------|----------------------------|
D|-------------5--------------5-|-------------5-----------5/-|
A|-3h4-4-3h4-4---3h4-4-3h4-4----|-3h4-4-3h4-4---3h4-3h4-4----|
E|------------------------------|----------------------------|

G|------------------------------|------------------------5\--|
D|-------------5--------------5-|-------------5-7------7-----|
A|-3h4-4-3h4-4---3h4-4-3h4-4----|-3h4-4-3h4-4----3h4-4-------|
E|------------------------------|----------------------------|

G|------------------------------|---------------------------7-|
D|-------------5--------------5-|-------------5-----------5---|
A|-3h4-4-3h4-4---3h4-4-3h4-4----|-3h4-4-3h4-4---3h4-3h4-4-----|
E|------------------------------|-----------------------------|

G|------------------------------|-----------------------------|
D|-------------5--------------5-|-------------5-----------5---|
A|-3h4-4-3h4-4---3h4-4-3h4-4----|-3h4-4-3h4-4---3h4-3h4-4-----|
E|------------------------------|--------------------------3\-|

OUTRO

G|-------------------------|x12
D|-------------------------|
A|-xxxxxxxxx-xxxxxxxxxxxx--|
E|-------------------------|

G|-5+----------------------|
D|-5+----------------------|
A|-5+----------------------|
E|-5+----------------------|


| /  slide up
| \  slide down
| h  hammer-on
| p  pull-off
| ~  vibrato
| +  harmonic
| x  Mute note
===============================================================================
Suggest correction
Creating personal tab
Creating personal tab
You can edit any tab online and save it as your Personal.

You can edit, replace or remove any tab part or add personal notes – all changes will be seen only by you.

Personal tabs can be accessed anytime from any device, even offline.
Learn more »
There is a new version of this tab from 2 days ago which you may like more. Go check it out:
comments
print report bad tab
guest
You may want to rate the tab now too:
select rating
Wanna post a correction for this tab? Suggest correction