Oops, an error
Loading. Please wait.

Natural Joe bass

version 2
version 2

Whole song

Interactive

by Primus
379 views 15 this week
no commentswrite comment
1 2 3 4 5
2 more votes to show rating
add to favorites
×
Save as Personal and add changes to this tab that will be seen only by you. Learn more ›
×
You can save this tab as Personal to edit and correct it or add notes. All changes will be seen only by you. Learn more »
launch autoscroll
font size
0
reset
guitar tuner
edit
Autoscroll
slow
fast
+/-
esc
set tempo
stop
Author
-------------------------------------------------------------------------------
                            Natural Joe-Primus
-------------------------------------------------------------------------------
Tabbed by: jk41
E-mail:

Tuning: E
Intro and verse riff                                                          Fill to
1st verse
G|----------------------------------------------------------------------------|-------------|
D|-p--------------------------------------------------------------------------|---11^b------|
A|-t--------------0h7-------------------0h7-------------------0h7-------------|-------------|
E|-t-0h9-0h9-x0h9-----0h6--0h9-0h9-x0h9-----0h6--0h9-0h9-x0h9-----0h6--0h9-0h9|-------------|

                               Fill 1 (in main riff after "late at night riff"
G|-----------------------------|----------------------------------------------------|
D|-p---------------------------|--x-----x-------------------------------------------|
A|-t------0h7------0h10--------|--------------ends with------0h7------0h10----------|
E|-t-x0h9-----x0h9------0h10---|----x-x---x-------------x0h9-----x0h9------0h10-0h10|

late at night riff
G|-----------------------------------------------------------------------------|
D|-----------------------------------------------------------------------------|
A|-----------------------------------------------------------------------------|
E|-t-0h10-0h10-0h10-0h10-9---0h10-0h10-0h10-0h10-9---0h10-0h10-0h10-0h10-9-----|
   #
G|-p-x--13----11----10---9---8----7-7---------|
D|-t--x----12----10----9---8---7------6-------|
A|--------------------------------------------|
E|--------------------------------------------|

solo backing riff
G|----------------------------------------------------------------------------------|
D|-p----------5-5---10^b-----------5-5---10^b------------5-5---10^b-----------5-5---|
A|----------------------------------------------------------------------------------|
E|-t-0h3-0h3---------------0h3-0h3--------------0h3-0h3---------------0h3-0h3-------|
                                                                    2nd time play #

Outro
G|----------------------------------------------------|
D|----------------------------------------------------|
A|-t-----------------0h10------0h11------0h12----x4---|
E|-t-0h12-0h12-x0h12------0h12------0h12--------------|

G|----------------------------------------------------|
D|-t-----------------0h10------0h11------0h12---------|
A|----------------------------------------------x4----|
E|-t-0h12-0h12-x0h12------0h12------0h12--------------|

then some freestyling as it fades out


There's a boy out 'luma way named Joe Eugene.
He's one mellow ass son of a bitch-a.

He loves his wheat grass and cold bean curd.
He's one healthy ass sone of a bitch-a.

But late at night he sneaks on down to the liquor store
For a bottle of sheep dip.

Natural Joe,
Got an easy flow.
Wherever he goes
They say "here comes Joe."

Joe, he's a happy Man and he won't do you wrong.
He's one respectable son of a bitch-a.

Now Joe ain't no patriarch,
But he's smooth with the girls.
He ain't no chauvinistic son of a bitch-a.

But late at night he sneaks on down to the porno store
For a little bit of...(meow)

Nature Joe,
He's hanging low.
Wherever he goes
They say "here comes Joe."

There's a boy out 'luma way named Joe Eugene.
He's one mellow ass son of a bitch-a.

He don't like firearms; he don't own knives.
He's one pacifistic sone of a bitch-a.

But late at night he eases on down to the video store
For a little bit of...

Natural Joe,
Got an easy flow.
Wherever he goes
They say "here comes Joe."

Natural Joe,
Looking slow and low.
Look there he goes.
Go Natural Joe.

| /  slide up
| \  slide down
| h  hammer-on
| p  pull-off
| ~  vibrato
| +  harmonic
| x  Mute note
===============================================================================
Suggest correction
Creating personal tab
Creating personal tab
You can edit any tab online and save it as your Personal.

You can edit, replace or remove any tab part or add personal notes – all changes will be seen only by you.

Personal tabs can be accessed anytime from any device, even offline.
Learn more »
Give kudos to tab author, rate the tab!
1 2 3 4 5
comments
print report bad tab
guest
You may want to rate the tab now too:
select rating
Wanna post a correction for this tab? Suggest correction