Oops, an error
Loading. Please wait.

Nib bass

by Primus
7,691 views 3 this week
no commentswrite comment
1 2 3 4 5
x 4
add to favorites
×
Save as Personal and add changes to this tab that will be seen only by you. Learn more ›
×
You can save this tab as Personal to edit and correct it or add notes. All changes will be seen only by you. Learn more »
launch autoscroll
font size
0
reset
guitar tuner
edit
Autoscroll
slow
fast
+/-
esc
set tempo
stop
Author
Difficulty
intermediate
feat primus

Bass is distorted only in Intro  

Q=96
 4/4
  Gtr I
  S S S S S S S   S T T S E E E
|----------------------------------|
|-----5---5-7-7b8p5-5h7p5----------|
|-5h7---7-----------------7-7------|
|----------------------------------|


  S S S S S S T T S S S S S S S E S S S S S S E T T S E Q
|---------------------7-9-9-7---7-x-7---7--------------------|
|-------5---5h7-x-7-9---------9-------9---9-7-5-5h7-x-5------|
|-7-5h7---7---------------------------------------------7----|
|------------------------------------------------------------|


  S S E E S S S S S S Q  S S S S S S S S S S T T S Q
|------------------------------------------------7-7----|
|-----5--------------------5---5-7-9-7---5-7-7h9--------|
|-5h7---7-5-------5-7-5--7---7---------5----------------|
|-----------7-5-7---------------------------------------|


  T T T T T S S S S S S S S E Q  T T E E S S S S S  T.  T.  T.
|-9-9-7-7-7---7-------------7------------------------1919191191911919191---|
|-----------9---9-7-5-7-9-9---9--x-5h7-5---5-------------------------------|
|----------------------------------------7---7-5h7-------------------------|
|--------------------------------------------------------------------------|


  E   E T T S S S S S E W        H
|-------------------------------------|
|-7b8-7-5h7p5---5---------------------|
|-------------7---7-5-5---------------|
|-----------------------0-------------|


  Q=108
 4/4
  E E E E E E E E E E E E E  E   E E  E E E E E E E E E E E E E S S S S E
|-------------------------------------------------------------------------|
|-----------5-4--------------7b8-7-5------------5-4---------------------5-|
|-7-7-5-7---------7-7-5-7-------------7-7-5-7---------7-7-5-7-------5-7---|
|---------------------------------------------------------------5-7-------|


  E E E E E E E E E E E E E  E   E T.T.T. E E E E E E E E E E E E S S S S Q
|---------------------------------------------------------------------------
|-----------5-4--------------7b8-7-5h7p5------------5-4-------------------5-
|-7-7-5-7---------7-7-5-7-----------------7-7-5-7---------7-7-5-7-----5-7---
|-----------------------------------------------------------------5-7-------


  E E E E E E E E E E E E E  E   E T.T.T. E E E E E E E E E E E E T T S S S 
|---------------------------------------------------------------------------
|---------5-4----------7b8-7-5h7p5------------5-4-----------5-7-5-7-5-7-5---
|7-7-5-7------7-7-5-7----------------7-7-5-7--------7-7-5-7---------------8-
|---------------------------------------------------------------------------


  E E E E E E E E E E E E E  E   E T.T.T. E E E E E E E E E E E E E E   Q
|---------------------------------------------------------------------------
|-----------5-4--------------7b8-7-5h7p5------------5-4---------------------
|-7-7-5-7---------7-7-5-7-----------------7-7-5-7---------7-7-5-7-----/12\--
|-------------------------------------------------------------------5-------


  Q  Q  E S S S S E Q  Q  E E E E Q   Q  E  E  E E Q   E S S E E E E
|-------7-9-9-9-7---------5-7-7--------------------------------------|
|----9-----------------7-----------------8-10-10------/9-9-9-9-9-9-9-|
|-7---------------7-5-----------5----10------------------------------|
|---------------------------------8--------------8-7-----------------|


  E E E E E E E E E E E E E  E   E T.T.T. E E E E E E E E E E E E S S S S Q
|---------------------------------------------------------------------------
|-----------5-4--------------7b8-7-5h7p5------------5-4-------------------5-
|-7-7-5-7---------7-7-5-7-----------------7-7-5-7---------7-7-5-7-----5-7---
|-----------------------------------------------------------------5-7-------


  E E E E E E E E E E E E E  E   E T.T.T. E E E E E E E E E E E E T T S S S 
|--------------------------------------------------------------------------
|--------5-4----------7b8-7-5h7p5-----------5-4-----------5-7-5-7-5-7-5----
|7-7-5-7-----7-7-5-7---------------7-7-5-7-------7-7-5-7----------------8--
|--------------------------------------------------------------------------


  E E E E E E E E E E E E E  E   E T.T.T. E E E E E E E E E E E E  H
|---------------------------------------------------------------------------
|-----------5-4--------------7b8-7-5h7p5------------5-4---------------------
|-7-7-5-7---------7-7-5-7-----------------7-7-5-7---------7-7-5-7-12b13\----
|---------------------------------------------------------------------------


  H    E E S S E H    E E S S E H    E E S S E Q  Q  Q   Q
|--------9-9-7----------9-9-7----------9-9-7----------------|
|------9-------9------9-------9------9-------9--------------|
|-7--------------5--------------------------------------/7--|
|-------------------------------8--------------7--7--7------|


  Q.   E E E S S E Q.   E E E S S E Q.   E E E S S E Q  Q  Q  Q
|--------9-9-9-7--------------9-9------------9-9-7---------------|
|------9---------9----------9-----9--------9-------9-------------|
|-7----------------5----7-7--------------7-----------------------|
|-----------------------------------8----------------7--7--7--7--|


  Q  Q  Q  Q  Q  Q  S S E E E Q  Q  S T T S S E E W      W
|----------------------------------------------------------|
|-----------------------9-------------9-9-9-9--------------|
|-------------------7h9---9---------9---------9------------|
|-8--8--8--8--7--7----------7-8--8--------------8-7--------|


  E E E E E E E E E E E E E  E   E T.T.T. E E E E E E E E E E E E S S S S E 
|---------------------------------------------------------------------------
|----------5-4-------------7b8-7-5h7p5-----------5-4-------------------5---
|-7-7-5-7--------7-7-5-7----------------7-7-5-7--------7-7-5-7-----5-7---5-
|-----------------------------------------------------------------5-7-------


  E E E E E E E E E E E E E  E E T.T.T. E E E E E E E E E E E E T T S S S S 
|---------------------------------------------------------------------------
|---------5-4------------5-7-5h7p5-----------5-4-----------5-7-5-7-5-7-5----
|7-7-5-7-------7-7-5-7--------------7-7-5-7--------7-7-5-7---------------8--
|---------------------------------------------------------------------------


  E E E E E E E E E E E E E  E   E T.T.T. E E E E E E E E E S S S S S S E E 
|---------------------------------------------------------------------------
|---------5-4------------7b8-7-5h7p5-----------5-4---------------5-7---9\---
|7-7-5-7-------7-7-5-7----------------7-7-5-7--------7-----5-6-7------------
|--------------------------------------------------------5-7----------------


  Q  Q  E S S S S E Q  Q  E E E E Q   E  S  S  E  E  E E Q  E S S E E E E
|-------7-9-9-9-7---------5-7-7-------------------------------------------|
|----9-----------------7----------------10-10-10-10-10-----/9-9-9-9-9-9-9-|
|-7---------------7-5-----------5----10-----------------------------------|
|---------------------------------8--------------------8-7----------------|


  E E E T T T E E S S E E E E Q  S S E E Q   E  S  S  E  E  E  E Q.  S S E E
|---------7-9-9-9-9-7-----------7-7-7---------------------------------------
|------9-------------9-------7----------------10-10-10-10-10----------9-9-9-
|7-7-7----------------5-5-5----------5----10----------------10-----7-9------
|---------------------------------------8-----------------------7----------7


  E E E T T T T S S S S S S S S E E S S Q  S S E E
|-------7-9-7---7-9-7---7-9-7-----------7--7-5--------|
|-----9-------9-------9-------9-----5-7---------------|
|-7-7---------------------------5-5------------5-5----|
|-----------------------------------------------------|


  E E S  S  E  S  S  S  S  E E E E S S S S E E E E
|-----------------------------------------------------|
|----------10----10-10-10-10-------9-9-9-9-9-9-9-9----|
|-----8-10----10--------------------------------------|
|-8-8------------------------8-7-7--------------------|


  E E E E H    E E E E H    E E E E H    Q.  T S E E S S  E
|-------------------------------------------------------------|
|------------------------------------------------9-7----------|
|-7-7-7-7------5-5-5-------------------------7-9-----9-7------|
|---------------------------8-8-8--------7---------------10---|


  E S S S S S S S S S S S S E S S S S S S S S S S S S S S E
|---9-7---9-7---9-7---9-7-----7-7-5-5-7---7-5------------------|
|-------9-----9-----9-----9-9-----------7-----7-5-5---5--------|
|-7-------------------------------------------------7---7-5----|
|--------------------------------------------------------------|


  E  E  S  S  E   E   E   E  E  E S S S S E  S S E  E  E
|-----------------------------------------------------------|
|------------10--10--10--10-----------7-9-9--7-9-9--9-------|
|-------8-10----------------------7-9-----------------------|
|-8--8-----------------------8--7----------------------7----|


   E E E E E E E E E E E E E S S E  E  E E E E E E E E E E E E E   E T T S E
|---------------------------------------------------------------------------
|-----------5-4---------------------------------5-4-----------7b8-7-5-7-5-5-
|-/7-7-5-7------5-7-7-5-7---5-7----5--7-7-5-7--------7-7-5-7----------------
|--------------------------------5------------------------------------------


  E E E E E E E E E E E E E  E   E T.T.T. E E E E E E E E E E E E S S E  E  
|---------------------------------------------------------------------------
|-----------5-4--------------7b8-7-5h7p5------------5-4----------------/9\--
|-7-7-5-7---------7-7-5-7-----------------7-7-5-7---------7-7-5-7-----5---5-
|-----------------------------------------------------------------5-7-------


  E E E E E E E E E E E E E  E   E T.T.T. E E E E E E E E E E E   H         
|---------------------------------------------------------------------------
|-----------5-4--------------7b8-7-5h7p5------------5-4---------/14\--------
|-7-7-5-7---------7-7-5-7-----------------7-7-5-7---------7-7-5-------------
|---------------------------------------------------------------------------


  Q.   E E E S S E H    E E S S E Q.   E E E S S E Q  Q  Q   Q
|--------9-9-9-7----------9-9-7----------9-9-9-7----------------|
|------9---------9------9-------9------9---------9--------------|
|-7----------------5----------------------------------------/7--|
|---------------------------------8----------------7--7--7------|


  Q.   E E E S S E Q.  E E S S S S E Q.   E E E S S E Q  Q  Q  Q
|--------9-9-9-7-----------7h9-9-9------------9-9-7---------------|
|------9---------9-----------------9--------9-------9-------------|
|-7----------------5---7-7----------------7-----------------------|
|------------------------------------8----------------7--7--7--7--|


  Q  Q  E S  S  E  E  Q  Q  S S S S S S S S
|----------------------------------------------|
|--------------10-----------7h9-9-9-7h9-9-9----|
|---------8-10----10---------------------------|
|-8--8--8-------------7--7---------------------|


  Q.    S  S  Q  S  S E W        W
|-------------------------------------|
|------------10-10--------------------|
|-------8-10-------10-8---------------|
|-8---------------------7-------------|


                                                                    P     P
  E E E E E E E E E E E E E  E   E T.T.T. E E E E E E E E E E E S S E S S Q
|-------------------------------------------------------------------5-----7-
|-----------5-4--------------7b8-7-5h7p5------------5-4---------------------
|-7-7-5-7---------7-7-5-7-----------------7-7-5-7---------7-7-5-0h3---0h5---
|---------------------------------------------------------------------------


  E E E E E E E E E E E E E  E   E T.T.T. E E E E E E E E E E E E E E  E E
|---------------------------------------------------------------------------
|-----------5-4--------------7b8-7-5h7p5------------5-4------------------7--
|-7-7-5-7---------7-7-5-7-----------------7-7-5-7---------7-7-5-7-----/7----
|-----------------------------------------------------------------5-7-------


  E E E E E E E E E E E E E  E   E T.T.T. E E E E E E E E E E E E E E   Q
|---------------------------------------------------------------------------
|-----------5-4--------------7b8-7-5h7p5------------5-4---------------------
|-7-7-5-7---------7-7-5-7-----------------7-7-5-7---------7-7-5-7-----/12\--
|-------------------------------------------------------------------5-------


  Q.   S S E E E E Q.   E E E E E Q  E E E  E  E E E E E E E E E E
|----------9-9-7----------7-7-7--------------------------------------|
|------9-9--------------7------------------10-10---------------------|
|-7--------------7-5------------5------------------------------------|
|---------------------------------8--8-8-8-------8-7-7-7-7-7-7-7-7---|


  E E E E E E E E E E E E E E E E E E E E E E E E E E E E E E E E
|---------9-9--------------------------------------------------------|
|-------9-----9------------------------------------------------------|
|-7-7-7---------7-5-5-5-----3-5-3-------------7----------------------|
|-----------------------5-5-------8-8-3-5-7-8---8-7-7-7-7-7-7-7-7----|



  S S S S S S S S S S S S S S S S S S  S S S S S S S S S S E E
|-7h9-9-9-7h9-9-9-9---7-----------5h7--7-5---5--------------------|
|-------------------9---9-7-5-5-7----------7---7-5----------------|
|--------------------------------------------------5-7-5-0-3-5----|
|-----------------------------------------------------------------|


  E E  E  S  S  S   S  E  S  S  E E E S S  S E S S  S E  E
|-------------------------------------------------------------|
|--------10-10-10-/12-12-10-10-10-9-9-9-9-10-9-9-9-10-9-10----|
|-----10------------------------------------------------------|
|-8-8---------------------------------------------------------|


  E E E E E E E E E E E E E E E E E  E  E  E  E  E  E  E
|-----9-------9-------7-------7-----------------------------|
|---9---9---9---9---7---7---7---7------10-10-12-12-10-10----|
|-7-------7-------5-------5---------10----------------------|
|---------------------------------8-------------------------|


  Q T T T T T T T T T T T T T T T T T T T T T T T T
|------------------------------------------------------|
|-9-9-9-9-9-9-9-9-9-9-9-9-9-9-9-9-9-9-9-9-9-9-9-9-9----|
|------------------------------------------------------|
|------------------------------------------------------|


  T T T T T T T T T T T T T T T T T T T T T T T T T T T T T T T T
|--------------------------------------------------------------------|
|-9-9-9-9-9-9-9-9-9-9-9-9-9-9-9-9-9-9-9-9-9-9-9-9-9-9-9-9-9-9-9-9----|
|--------------------------------------------------------------------|
|--------------------------------------------------------------------|


  T T T T T T T T T T T T T T T T T T T T T T T T T T T T T T T T
|--------------------------------------------------------------------|
|-9-9-9-9-9-9-9-9-9-9-9-9-9-9-9-9-9-9-9-9-9-9-9-9-9-9-9-9-9-9-9-9----|
|--------------------------------------------------------------------|
|--------------------------------------------------------------------|


  T T T T T T T T T T T T T T T T T T T T T T T T T T T T T T T T T T T S S 
|---------------------------------------------------------------------------
|-9-9-9-9-9-9-9-9-9-9-9-9-9-9-9-9-9-9-9-9-9-9-9-9-9-9-9-9-9-9-9-9-9-9-9-9-9-
|---------------------------------------------------------------------------
|---------------------------------------------------------------------------


  H    T T T T T T T T T T T T T T T T T T T T T T T T
|---------------------------------------------------------|
|-2----2-2-2-2-2-2-2-2-2-2-2-2-2-2-2-2-3-3-3-3-4-4-4-4----|
|---------------------------------------------------------|
|---------------------------------------------------------|


  T T T T T T T T T T T T T T T T T T T T  T  T  T  T  T  T  T  T  T  T  T  
|---------------------------------------------------------------------------
|-5-5-5-5-6-6-6-6-7-7-7-7-8-8-8-8-9-9-9-9-10-10-10-11-11-11-12-12-12-13-13--
|---------------------------------------------------------------------------
|---------------------------------------------------------------------------


   T  T  T  T  T  T  T  T  T  T  T  T  T  T  T  T  T  T  T  T  T  T  T  T  
|---------------------------------------------------------------------------
|-14-14-14-14-14-14-14-14-14-14-14-14-14-14-14-14-14-14-14-14-14-14-14-14---
|---------------------------------------------------------------------------
|---------------------------------------------------------------------------


   T  T  T  T  T  T  T  T  T  T  T  T  T  T  T  T  T  T  T  T  T  T  T  T  W
|---------------------------------------------------------------------------
|-14-14-14-14-14-14-14-14-14-14-14-14-14-14-14-14-14-14-14-14-14-14-14-14-14
|---------------------------------------------------------------------------
|---------------------------------------------------------------------------


  W        W        W        H
|----------------------------------|
|----------------------------------|
|----------------------------7\----|
|----------------------------------|




----------------------------------------------------------------------------


Duration Legend
---------------
W - whole; H - half; Q - quarter; E - 8th; S - 16th; T - 32nd; X - 64th; a - acciaccatura
+ - note tied to previous; . - note dotted; .. - note double dotted


Tablature Legend
----------------
 h   - hammer-on
 p   - pull-off
 b   - bend
 pb  - pre-bend
 r   - bend release (if no number after the r, then release immediately)
 /\  - slide into or out of (from/to \"nowhere\")
 s   - legato slide
 S   - shift slide
 - natural harmonic
[n]  - artificial harmonic
n(n) - tapped harmonic
 ~   - vibrato
 tr  - trill
 T   - tap
 P   - pop 
TP  - trem. picking
 PM  - palm muting
\n/  - tremolo bar dip; n = amount to dip
 \\n  - tremolo bar down
 n/  - tremolo bar up
/n\  - tremolo bar inverted dip
 =   - hold bend; also acts as connecting device for hammers/pulls
  - volume swell (louder/softer)
 x   - on rhythm slash represents muted slash
 o   - on rhythm slash represents single note slash

Misc Legend
-----------
 |  - bar
||  - double bar
||o - repeat start
o|| - repeat end
*|  - double bar (ending)
 :  - bar (freetime)
 $  - Segno
 &  - Coda
Tempo markers -  = BPM(8/16=s8/s16), where s8 = swing 8ths, s16 = swing 16ths

            
            
Suggest correction
Creating personal tab
Creating personal tab
You can edit any tab online and save it as your Personal.

You can edit, replace or remove any tab part or add personal notes – all changes will be seen only by you.

Personal tabs can be accessed anytime from any device, even offline.
Learn more »
comments
print report bad tab
guest
You may want to rate the tab now too:
select rating
Wanna post a correction for this tab? Suggest correction