Oops, an error
Loading. Please wait.

Sgt Baker bass

version 5
version 5

Interactive

by Primus
3,846 views 1 this week
no commentswrite comment
1 2 3 4 5
1 last vote to show rating
add to favorites
×
Save as Personal and add changes to this tab that will be seen only by you. Learn more ›
×
You can save this tab as Personal to edit and correct it or add notes. All changes will be seen only by you. Learn more »
launch autoscroll
font size
0
reset
guitar tuner
edit
Autoscroll
slow
fast
+/-
esc
set tempo
stop
this isn't slapped but i like to do it anyway
I have seen so many incorrect tabs of this song, so I decided to
tab it myself
there are lots of variations, but you can just make you own

v = downstroke
b = bend

Intro:
G---------------------------------------------------------------------------------|
D----2----------------------------2-----------2----------------------------2------|
A-------3--2--1--0------------------3------------3--2--1--0------------------3----|
E-0-0-----------------1-3-2-1----0-----2-----0-----------------1-3-2-1----0-----2-|

G-------------------------------------------------------------------------------|
D--2----------------------------2-----------2----------------------------2------|
A-----3--2--1--0------------------3------------3--2--1--0------------------3----|
E-0-----------------1-3-2-1----0-----2-----0-----------------1-3-2-1----0-----2-|

Transition:                                           v
G---------------------------------------------------------------------------9/10-|
D--------7p4-------------------7p4----------------7p4-----------------------9/10-|
A-----6---------------------6------------------6--------------------6------------|
E-0h7-------------------0h7----------------0h7------------------0h7--------------|

Main Riff:     v v
G--------------9-9\10-----------------------------------------------|
D---------7p4--9-9\10-----------7-----------------------------------|
A-----6---------------------6---------------------------------------|
E-0h7-------------------0h7--------2-3-2----------------------------|
sometime instead of the 2-3-2 he plays 3-2-0 and doesn’t play the 7-|

"Sgt Baker is my name...":
              v v   v             v v   v              v v   v
G-------------9-9\10x-------------9-9\10x--------------9-9\10x-------------------|
D--------7p4--9-9\10x--------7p4--9-9\10x---------7p4--9-9\10x----------7--------|
A-----6-------------------6--------------------6---------------------6-----------|
E-0h7-----------------0h7------------------0h7-------------------0h7-------2-3-2-|
the ghost notes are hard to hear but they’re there

This is in the middle of the song after he says one! two!:
  v             v                   v        v         v      v
G-2-------------2-------------------2--------2---------2------0-|
D-2-------------2-------------------2--------2---------2------0-|
A---------------------------------------------------------------|
E----2-3-2-00------2-3-2-00---0--0----3-0--0---3-0--0----3-0----|
  v             v                   v        v         v      v
G-2-------------2-------------------2--------2---------2------0-|
D-2-------------2-------------------2--------2---------2------0-|
A---------------------------------------------------------------|
E----2-3-2-00------2-3-2-00---0--0----3-0--0---3-0--0----3-0----|
  v             v                   v        v         v      v
G-2-------------2-------------------2--------2---------2------0-|
D-2-------------2-------------------2--------2---------2------0-|
A---------------------------------------------------------------|
E----2-3-2-00------2-3-2-00---0--0----3-0--0---3-0--0----3-0----|
  V             V                   V         V      V      V
G-2-------------2-------------------2---------2------2------0-|
D-2-------------2-------------------2---------2------2------0-|
A-------------------------------------------------------------|
E----2-3-2-00-3b---2-3-2-00-2b--0-0----3-0--0---0--0---3-0----|

            
            
Suggest correction
Creating personal tab
Creating personal tab
You can edit any tab online and save it as your Personal.

You can edit, replace or remove any tab part or add personal notes – all changes will be seen only by you.

Personal tabs can be accessed anytime from any device, even offline.
Learn more »
Give kudos to tab author, rate the tab!
1 2 3 4 5
comments
print report bad tab
guest
You may want to rate the tab now too:
select rating
Wanna post a correction for this tab? Suggest correction