Oops, an error
Loading. Please wait.

Sgt Baker bass

version 6
version 6

Interactive

by Primus
264 views 1 this week
no commentswrite comment
1 2 3 4 5
3 more votes to show rating
add to favorites
×
Save as Personal and add changes to this tab that will be seen only by you. Learn more ›
×
You can save this tab as Personal to edit and correct it or add notes. All changes will be seen only by you. Learn more »
launch autoscroll
font size
0
reset
guitar tuner
edit
Autoscroll
slow
fast
+/-
esc
set tempo
stop
Author
----------------------------------------------------------------------------
                         SGT Baker-Primus
----------------------------------------------------------------------------
Tabbed by: jk41
E-mail:

Tuning:standard

 A fun and easy song to play where the other tabs arent quite right

G|--------------------------------------------------------------------------|
D|--------------------------------------------------------------------------|
A|----/7------------------/7---------repeated-------------------------------|
E|-0-0---8-7-6-0-3-2-1--0----8--2-------------------------------------------|
                                s

G|---------------------------------------4-4/5------------------------------|
D|--------7p4--------7p4-------7p4-------2-2/3------------------------------|
A|--0h3h6------0h3h6-----0h3h6-----0h3h6------------------------------------|
E|--------------------------------------------------------------------------|
    s     p    s     p   s     p   s     p p

verse/ main riff with variations but is basically this
G|------------4-4/5----------------------------4-5---------------------------|
D|--------7p4-2-2/3--------7p4-------------7p4-2/3--------7p4----------------|
A|--0h3h6------------0h3h6-----------0h3h6----------0h3h6--------------------|
E|-----------------------------0-2-1--------------------------3-2-1----------|
    s     p   p p    s     p   s s s s     p   p    s     p   s s s

theyre the 4 tails. where the verse repeats the first 3 times ending with
2nd or 4th, the 3rd is thrown in as a variation of the 1st there is also a
sliding fast run up the g string too

interlude/other riff
G|-2-----------2---------------0h1-----0h1------0h1----1-1------------------|
D|-2-----------2---------------0h1-----0h1------0h1----1-1------------------|
A|---0-3-2-00----0-3-2-00---------------------------------------------------|
E|-------------------------0-x-----0-x-----0-0x-----0x----------------------|
   p s s s ss  p s s s ss  s s p   s s p   s ss p   ss p p

thats basically all that is played, its now up to you to listen and put it
together, best way to learn

| /  slide up
| \  slide down
| h  hammer-on
| p  pull-off
| ~  vibrato
| +  harmonic
| x  Mute note
===============================================================================
Suggest correction
Creating personal tab
Creating personal tab
You can edit any tab online and save it as your Personal.

You can edit, replace or remove any tab part or add personal notes – all changes will be seen only by you.

Personal tabs can be accessed anytime from any device, even offline.
Learn more »
Give kudos to tab author, rate the tab!
1 2 3 4 5
comments
print report bad tab
guest
You may want to rate the tab now too:
select rating
Wanna post a correction for this tab? Suggest correction