Oops, an error
Loading. Please wait.

Silly Putty bass

by Primus
6,463 views 9 this week
2 commentsread comments
1 2 3 4 5
x 3
add to favorites
×
Save as Personal and add changes to this tab that will be seen only by you. Learn more ›
×
You can save this tab as Personal to edit and correct it or add notes. All changes will be seen only by you. Learn more »
launch autoscroll
font size
0
reset
guitar tuner
edit
Autoscroll
slow
fast
+/-
esc
set tempo
stop
Author
Difficulty
Intro

G|--11\---13----------------------|-------9-11\13-9h11p9----11--9-|
D|--------------14----------------|--9h11----------------11-----7-|
A|--------------------------------|-------------------------------|
E|--------------0-----------------|-------------------------------|


G|--7h9-6--4h6p4-2h4p2-4h6-4p0r|----------------0h7h9-|
D|-----------------------------|----------------------|
A|-----------------------------|--0-x-4h5-------------|
E|-----------------------------|----------5h7-0-------|

                                         
G|------------------------------------0-|2-0---|
D|--------------------------0h---2------|----2-|
A|--x-x-4h5-x-x-------------------------|------|
E|--------------------------------------|------|

Verse                             
                                                                         
G|-------------------------------------------|
D|------5---x-----x------5-----------------x-|
A|--4h5---x----x-----4h5----------x----------|
E|-------------------------------------------|


Chorus

G|----0----0-----------------5h-6----|
D|-----------------------------------|
A|--0--------------------------------|
E|---------------5----5-3------------|

Chorus                                        

G|----0--------0----------5h6p5h6p5h6p5h6-|-----5------7-|
D|----------------------------------------|--------------|
A|----------------------------------------|-0h4-----0h5--|
E|--5/-----------5----5-3-----------------|--------------|


G|----0--------0-----------7r---|----0---0---------5h7------------|
D|------------------------------|----------------------5h7--------|
A|------------------------------|--------------------------5h7----|
E|--5/-----------5----5-3-------|--5/------5----5-3------------0--|

Suggest correction
Creating personal tab
Creating personal tab
You can edit any tab online and save it as your Personal.

You can edit, replace or remove any tab part or add personal notes – all changes will be seen only by you.

Personal tabs can be accessed anytime from any device, even offline.
Learn more »
Give kudos to tab author, rate the tab!
1 2 3 4 5
comments
print report bad tab
2 comments total.
0 reply
alainvega 103 Aug 05, 2008 10:39 PM

Damn, by the time i mastered the intro i got stuck cause i couldn't stop playing it.

thanks, great tab!

0 reply
masterbaser 10 Jul 05, 2010 05:13 PM

i like the begining part but the rest i dont rly know bout =/ good job regardless

guest
You may want to rate the tab now too:
select rating
Wanna post a correction for this tab? Suggest correction