Oops, an error
Loading. Please wait.

South Park Theme Bass Tab

version 1
version 1

Whole song

Interactive

8,818 views 18 this week
no commentswrite comment
1 2 3 4 5
accurate
x 4
add to favorites
launch autoscroll
font size
0
reset
guitar tuner
Autoscroll
slow
fast
+/-
esc
set tempo
stop
Help us to improve Ultimate-Guitar.com Take our survey!
×
Author
G:|------------------------------------|
D:|--5/6-------5/6-------5/6-----------|
A:|-------5/6-------5/6-------5/6--6---|
E:|------------------------------------|   

(Repeat 3 times)
G:|--------------------------------------------|
D:|--5/6-----5/6-----5/6-------5/6--6----------|
A:|-------5-------5-------5/6----------6-------|
E:|--------------------------------------------|
   
(continued)-same line as above
G:|--------------------------------------------|
D:|--6/7--6/7--7/10--9/10--6/7--6/7--10/8--7---|
A:|--------------------------------------------|
E:|--------------------------------------------|

G:|------------------------------------|
D:|--5/6-------5/6-----5/6-------------|
A:|-------5/6-------5-------5/6--------|
E:|------------------------------0-----|
Suggest correction
comments
print report bad tab
guest
You may want to rate the tab now too:
select rating
Wanna post a correction for this tab? Suggest correction