Oops, an error
Loading. Please wait.

South Park Theme Tab

version 1
version 1

Whole song

Interactive

7,167 views 15 this week
1 commentread comment
1 2 3 4 5
x 6
add to favorites
launch autoscroll
font size
0
reset
how to read this tab
guitar tuner
×
Best way to learn
"South Park Theme"
Autoscroll
slow
fast
+/-
esc
set tempo
stop
song: "Theme from Southpark"
artist:  Primus
tabbed by: porkrynd69@aol.com

this song has already been tabbed by like all the
magazines but this is my way

  intro:
e|-9----x--9---9--x--9---9------------------------------------|
B|-13--x--13-13-x--13-13---11-11-7-7-7-7-9/-------------------|
G|----------------------------------10-10-7-7-7-7-9/----------|
D|------------------------------------------------------------|
A|------------------------------------------------------------|
E|------------------------------------------------------------|

1st and 2nd verse
GOING DOWN TO SOUTHPARK, BLA BLA BLA
e|-2-x-2-2-x-2--2--2---2-x-2-2-x-2--2--2---2---------------|
B|-1-x-1-1-x-1--1--1---1-x-1-1-x-1--1--1---1---------------|
G|---------------------------------------------------------|
D|---------------------------------------------------------|
A|---------------------------------------------------------|
E|---------------------------------------------------------|

  humble blah blah, everywhere
e|-5-5-5-5/8-8-8-8----5-5-5-5/8-8-8-8---------------------|
B|-4-4-4-4/7-7-7-7----4-4-4-4/7-7-7-7---------------------|
G|--------------------------------------------------------|
D|--------------------------------------------------------|
A|--------------------------------------------------------|
E|--------------------------------------------------------|

  VERSE 3 (W/KENNY)
e|-9---x-9---9--x--9---9---9----9--x-9----9--x-9---9-----9--9------------------|
B|-13-x-13-13-x-13--13--13-13-x-13-13-x-13--13--13-13--------------------------|
G|-----------------------------------------------------------------------------|
D|-----------------------------------------------------------------------------|
A|-----------------------------------------------------------------------------|
E|-----------------------------------------------------------------------------|

e|-11-11-11-11/14-14-14-14--11-11-11-11/14-14-14-14--------------------------|
B|-10-10-10-10/13-13-13-13--10-10-10-10/13-13-13-13--------------------------|
G|---------------------------------------------------------------------------|
D|---------------------------------------------------------------------------|
A|---------------------------------------------------------------------------|
E|---------------------------------------------------------------------------|
Suggest correction
comments
print report bad tab
1 comment total.
0 reply
metal_shredder 30 Feb 09, 2007 03:08 PM

lyrics:
Goin down to south park,gonna have myself a time

stan and kyle: friendly faces everywhere,humble folks without temptation.

Goin down to south park,gonna leave my woes behind.

cartman: ample parking,day or night,people spouting,howdy neighbor

Goin down to south park,see if i cant unwind.

either kenny or timmy says sh!t u cant understand

Goin down to south park,gonna see my friends tonight.

guest
You may want to rate the tab now too:
select rating
Wanna post a correction for this tab? Suggest correction