Oops, an error
Loading. Please wait.

Southbound Pachyderm bass

version 3
version 3

Whole song

Interactive

by Primus
4,189 views 3 this week
4 commentsread comments
1 2 3 4 5
x 7
add to favorites
×
Save as Personal and add changes to this tab that will be seen only by you. Learn more ›
×
You can save this tab as Personal to edit and correct it or add notes. All changes will be seen only by you. Learn more »
launch autoscroll
font size
0
reset
guitar tuner
edit
Autoscroll
slow
fast
+/-
esc
set tempo
stop
most people play this on a 4-string but this is a tab for a 6-string.  if you want to 
this on a 4-string you can ignore the two b-strings and adjust the power chords.

Riff 1
|------------------------------------------------------|
|------------------------------------------------------|
|-7-----9---10-----------------------------------------|
|---0-0---0----0-0--0-0-0-0-000-0-0--0-0-0-0-000-0-0---|
|------------------------------------------------------|
|------------------------------------------------------|

Riff 2
|--------------------------------------------|
|--------------------------------------------|
|------------------------Rest-3-measures-----|
|-0-0-0-0-000-0-0----------------------------|
|--------------------------------------------|
|--------------------------------------------|

Riff 3
|---------------------------------------------------------------------|
|---------------------------------------------------------------------|
|-7-----9-----10-----9\5---7------------------------------------------|
|---0-0---0-0----0-0--0--0---0-0-0--0-0-0-0-000-0-0--0-0-0-0-000-0-0--|
|---------------------------------------------------------------------|
|---------------------------------------------------------------------|

Riff 1
|------------------------------------------------------|
|------------------------------------------------------|
|-7-----9---10-----------------------------------------|
|---0-0---0----0-0--0-0-0-0-000-0-0--0-0-0-0-000-0-0---|
|------------------------------------------------------|
|------------------------------------------------------|

Fill 1
|--------------------|
|--------------------|
|--------------------|
|-0-0-0-0-000-0-0----|
|--------------------|
|--------------------|

Riff 4
|----------------------------------11----------------------|
|-19----------------------------------12---12/14-----------|
|-15-------------------------------------14----------------|
|----0-0-0-000-0-0--0-0-0-0-000-0------0--0------0-0-0-0---|
|----------------------------------------------------------|
|----------------------------------------------------------|

|---------14-14-14-14--15-16---------------------|
|---------14-14-14-14--15-16---------------------|
|---------12-12-12-12--13-14---------------------|
|-0-0-0-0---------------------0-0-0-0-000-0-0----|
|------------------------------------------------|
|------------------------------------------------|

Riff 1
|------------------------------------------------------|
|------------------------------------------------------|
|-7-----9---10-----------------------------------------|
|---0-0---0----0-0--0-0-0-0-000-0-0--0-0-0-0-000-0-0---|
|------------------------------------------------------|
|------------------------------------------------------|

Riff 3
|---------------------------------------------------------------------|
|---------------------------------------------------------------------|
|-7-----9-----10-----9\5---7------------------------------------------|
|---0-0---0-0----0-0--0--0---0-0-0--0-0-0-0-000-0-0--0-0-0-0-000-0-0--|
|---------------------------------------------------------------------|
|---------------------------------------------------------------------|

Riff 4
|----------------------------------11----------------------|
|-19----------------------------------12---12/14-----------|
|-15-------------------------------------14----------------|
|----0-0-0-000-0-0--0-0-0-0-000-0------0--0------0-0-0-0---|
|----------------------------------------------------------|
|----------------------------------------------------------|

|---------14-14-14-14--15-16---------------------|
|---------14-14-14-14--15-16---------------------|
|---------12-12-12-12--13-14---------------------|
|-0-0-0-0---------------------0-0-0-0-000-0-0----|
|------------------------------------------------|
|------------------------------------------------|

Riff 5
|--------------------------14-14-14-14--15-16-----|
|--------------------------14-14-14-14--15-16-----|
|--------------------------12-12-12-12--13-14-----|
|-0-0-0-0-0-0-0-0--000-0-0------------------------|
|-------------------------------------------------|
|-------------------------------------------------|

Bridge 1
|-------------------|
|-------------------|
|-------------------|
|-0-0-0-0-000-000---|
|-------------------|
|-------------------|

Riff 1
|------------------------------------------------------|
|------------------------------------------------------|
|-7-----9---10-----------------------------------------|
|---0-0---0----0-0--0-0-0-0-000-0-0--0-0-0-0-000-0-0---|
|------------------------------------------------------|
|------------------------------------------------------|

Riff 3
|---------------------------------------------------------------------|
|---------------------------------------------------------------------|
|-7-----9-----10-----9\5---7------------------------------------------|
|---0-0---0-0----0-0--0--0---0-0-0--0-0-0-0-000-0-0--0-0-0-0-000-0-0--|
|---------------------------------------------------------------------|
|---------------------------------------------------------------------|

Riff 1
|------------------------------------------------------|
|------------------------------------------------------|
|-7-----9---10-----------------------------------------|
|---0-0---0----0-0--0-0-0-0-000-0-0--0-0-0-0-000-0-0---|
|------------------------------------------------------|
|------------------------------------------------------|

Fill 1
|--------------------|
|--------------------|
|--------------------|
|-0-0-0-0-000-0-0----|
|--------------------|
|--------------------|

Riff 4
|----------------------------------11----------------------|
|-19----------------------------------12---12/14-----------|
|-15-------------------------------------14----------------|
|----0-0-0-000-0-0--0-0-0-0-000-0------0--0------0-0-0-0---|
|----------------------------------------------------------|
|----------------------------------------------------------|

|---------14-14-14-14--15-16---------------------|
|---------14-14-14-14--15-16---------------------|
|---------12-12-12-12--13-14---------------------|
|-0-0-0-0---------------------0-0-0-0-000-0-0----|
|------------------------------------------------|
|------------------------------------------------|

Riff 2
|--------------------------------------------|
|--------------------------------------------|
|------------------------Rest-3-measures-----|
|-0-0-0-0-000-0-0----------------------------|
|--------------------------------------------|
|--------------------------------------------|

Fill 1
|--------------------|
|--------------------|
|--------------------|
|-0-0-0-0-000-0-0----|
|--------------------|
|--------------------|

Riff 6
|----------------------------------|-----------------|--------------------|
|----------------------------------|-----------------|--------------------|
|-10-----9-----7---5-7-7-5-7-------|-rest-2-measures-|-10-----9-----10----|
|----0-0---0-0---0-----------0-0-0-|-----------------|----0-0---0-0----0--|
|----------------------------------|-----------------|--------------------|
|----------------------------------|-----------------|--------------------|

|-------------------------------------------------------------------------|
|-------------------------------------------------------------------------|
|-------------------------------------------------------------------------|
|-------------------------------------------------------------------------|
|-5-5-5-5-5-5-5-5--5-5-5-5-5-5-5-5--5-5-5-5-5-5-5-5--5-5-5-5-0-0-0-0------|
|-------------------------------------------------------------------------|

|-------------------------------------------------------------------------|
|-------------------------------------------------------------------------|
|-12-----10-----12----12/14-----------------------------------------------|
|----0-0----0-0----0--------0-0-0-0-0-0-0--0-0-0-0-0-0-0-0----------------|
|-------------------------------------------------------------------------|
|-------------------------------------------------------------------------|

Riff 7
|------------------------------------11----------------------------------|
|-19------------------------------------12----12/14----------------------|
|-15---------------------------------------14----------------------------|
|----0-0-0-0-0-0-0--000-0-0-0-0-0-0------0--0-------0-0-0-0--------------|
|------------------------------------------------------------------------|
|------------------------------------------------------------------------|

|---------------------------------------------------|
|---------------------------------------------------|
|---------------------------------------------------|
|--------------7---7-7h8p7----7---10---10---10/-----|
|-0---0--0---0---0---------0--0------0----0---------|
|---------------------------------------------------|

|-----------------------------------------------------------------------|
|-----------------------------------------------------------------------|
|-----------------------------------------------------------------------|
|-0-0-0-000-0-0--0-0-0-0-000-000--0-0-0-0-0-0-0-0-----------------------|
|-----------------------------------------------------------------------|
|-----------------------------------------------------------------------|

Riff 4
|----------------------------------11----------------------|
|-19----------------------------------12---12/14-----------|
|-15-------------------------------------14----------------|
|----0-0-0-000-0-0--0-0-0-0-000-0------0--0------0-0-0-0---|
|----------------------------------------------------------|
|----------------------------------------------------------|

|---------14-14-14-14--15-16---------------------|
|---------14-14-14-14--15-16---------------------|
|---------12-12-12-12--13-14---------------------|
|-0-0-0-0---------------------0-0-0-0-000-0-0----|
|------------------------------------------------|
|------------------------------------------------|

Riff 2 (x .5)
|--------------------------------------------|
|--------------------------------------------|
|------------------------Rest-3-measures-----|
|-0-0-0-0-000-0-0----------------------------|
|--------------------------------------------|
|--------------------------------------------|

Fill 1
|--------------------|
|--------------------|
|--------------------|
|-0-0-0-0-000-0-0----|
|--------------------|
|--------------------|

Riff 6
|----------------------------------|-----------------|--------------------|
|----------------------------------|-----------------|--------------------|
|-10-----9-----7---5-7-7-5-7-------|-rest-2-measures-|-10-----9-----10----|
|----0-0---0-0---0-----------0-0-0-|-----------------|----0-0---0-0----0--|
|----------------------------------|-----------------|--------------------|
|----------------------------------|-----------------|--------------------|

|-------------------------------------------------------------------------|
|-------------------------------------------------------------------------|
|-------------------------------------------------------------------------|
|-------------------------------------------------------------------------|
|-5-5-5-5-5-5-5-5--5-5-5-5-5-5-5-5--5-5-5-5-5-5-5-5--5-5-5-5-0-0-0-0------|
|-------------------------------------------------------------------------|

|-------------------------------------------------------------------------|
|-------------------------------------------------------------------------|
|-12-----10-----12----12/14-----------------------------------------------|
|----0-0----0-0----0--------0-0-0-0-0-0-0--0-0-0-0-0-0-0-0----------------|
|-------------------------------------------------------------------------|
|-------------------------------------------------------------------------|

Fill 2
|--------------------------|
|--------------------------|
|-5-7-7p5---7--------------|
|-------0-0---0-0----------|
|--------------------------|
|--------------------------|

Riff 6
|----------------------------------|-----------------|--------------------|
|----------------------------------|-----------------|--------------------|
|-10-----9-----7---5-7-7-5-7-------|-rest-2-measures-|-10-----9-----10----|
|----0-0---0-0---0-----------0-0-0-|-----------------|----0-0---0-0----0--|
|----------------------------------|-----------------|--------------------|
|----------------------------------|-----------------|--------------------|

|-------------------------------------------------------------------------|
|-------------------------------------------------------------------------|
|-------------------------------------------------------------------------|
|-------------------------------------------------------------------------|
|-5-5-5-5-5-5-5-5--5-5-5-5-5-5-5-5--5-5-5-5-5-5-5-5--5-5-5-5-0-0-0-0------|
|-------------------------------------------------------------------------|

|-------------------------------------------------------------------------|
|-------------------------------------------------------------------------|
|-12-----10-----12----12/14-----------------------------------------------|
|----0-0----0-0----0--------0-0-0-0-0-0-0--0-0-0-0-0-0-0-0----------------|
|-------------------------------------------------------------------------|
|-------------------------------------------------------------------------|

Riff 4
|----------------------------------11----------------------|
|-19----------------------------------12---12/14-----------|
|-15-------------------------------------14----------------|
|----0-0-0-000-0-0--0-0-0-0-000-0------0--0------0-0-0-0---|
|----------------------------------------------------------|
|----------------------------------------------------------|

|---------14-14-14-14--15-16---------------------|
|---------14-14-14-14--15-16---------------------|
|---------12-12-12-12--13-14---------------------|
|-0-0-0-0---------------------0-0-0-0-000-0-0----|
|------------------------------------------------|
|------------------------------------------------|

Riff 5 (x8)
|--------------------------14-14-14-14--15-16-----|
|--------------------------14-14-14-14--15-16-----|
|--------------------------12-12-12-12--13-14-----|
|-0-0-0-0-0-0-0-0--000-0-0------------------------|
|-------------------------------------------------|
|-------------------------------------------------|

Riff 2
|--------------------------------------------|
|--------------------------------------------|
|------------------------Rest-3-measures-----|
|-0-0-0-0-000-0-0----------------------------|
|--------------------------------------------|
|--------------------------------------------|

Fill 3
|-------------------------|-------------------------|
|-------------------------|-------------------------|
|---7---------------------|-----Rest-3-measures-----|
|-0-----0-0-0-0-0---------|-------------------------|
|-------------------------|-------------------------|
|-------------------------|-------------------------|

Riff 6 (x2)
|----------------------------------|-----------------|--------------------|
|----------------------------------|-----------------|--------------------|
|-10-----9-----7---5-7-7-5-7-------|-rest-2-measures-|-10-----9-----10----|
|----0-0---0-0---0-----------0-0-0-|-----------------|----0-0---0-0----0--|
|----------------------------------|-----------------|--------------------|
|----------------------------------|-----------------|--------------------|

|-------------------------------------------------------------------------|
|-------------------------------------------------------------------------|
|-------------------------------------------------------------------------|
|-------------------------------------------------------------------------|
|-5-5-5-5-5-5-5-5--5-5-5-5-5-5-5-5--5-5-5-5-5-5-5-5--5-5-5-5-0-0-0-0------|
|-------------------------------------------------------------------------|

|-------------------------------------------------------------------------|
|-------------------------------------------------------------------------|
|-12-----10-----12----12/14-----------------------------------------------|
|----0-0----0-0----0--------0-0-0-0-0-0-0--0-0-0-0-0-0-0-0----------------|
|-------------------------------------------------------------------------|
|-------------------------------------------------------------------------|

Riff 7
|------------------------------------11----------------------------------|
|-19------------------------------------12----12/14----------------------|
|-15---------------------------------------14----------------------------|
|----0-0-0-0-0-0-0--000-0-0-0-0-0-0------0--0-------0-0-0-0--------------|
|------------------------------------------------------------------------|
|------------------------------------------------------------------------|

|---------------------------------------------------|
|---------------------------------------------------|
|---------------------------------------------------|
|--------------7---7-7h8p7----7---10---10---10/-----|
|-0---0--0---0---0---------0--0------0----0---------|
|---------------------------------------------------|

|-----------------------------------------------------------------------|
|-----------------------------------------------------------------------|
|-----------------------------------------------------------------------|
|-0-0-0-000-0-0--0-0-0-0-000-000--0-0-0-0-0-0-0-0-----------------------|
|-----------------------------------------------------------------------|
|-----------------------------------------------------------------------|

Riff 4
|----------------------------------11----------------------|
|-19----------------------------------12---12/14-----------|
|-15-------------------------------------14----------------|
|----0-0-0-000-0-0--0-0-0-0-000-0------0--0------0-0-0-0---|
|----------------------------------------------------------|
|----------------------------------------------------------|

|---------14-14-14-14--15-16---------------------|
|---------14-14-14-14--15-16---------------------|
|---------12-12-12-12--13-14---------------------|
|-0-0-0-0---------------------0-0-0-0-000-0-0----|
|------------------------------------------------|
|------------------------------------------------|

Riff 5 (x10)
|--------------------------14-14-14-14--15-16-----|
|--------------------------14-14-14-14--15-16-----|
|--------------------------12-12-12-12--13-14-----|
|-0-0-0-0-0-0-0-0--000-0-0------------------------|
|-------------------------------------------------|
|-------------------------------------------------|

Riff 8 (x7)
|--------------------------14-14-14-14-15-16---------|
|--------------------------14-14-14-14-15-16---------|
|--------h7h7h7h7-h7h7h7h7-12-12-12-12-13-14---------|
|-0-0-0-0-0-0-0-0--0-0-0-0---------------------------|
|----------------------------------------------------|
|----------------------------------------------------|

Outro
                          Part 1 (x2)
|-----------------------------14-14-14-14-15-16-------------------|
|-----------------------------14-14-14-14-15-16-------------------|
|---------7-7--5-5h7----------12-12-12-12-13-14-------------------|
|-0-0-0-0------------0-0-0--0-------------------------------------|
|-----------------------------------------------------------------|

                          Part 2
|---------------------------------14-14-14-14-15-16-----------|
|---------------------------------14-14-14-14-15-16-----------|
|---------5-7--5-7--5-7-----------12-12-12-12-13-14-----------|
|-0-0-0-0----------------0----0-------------------------------|
|-------------------------------------------------------------|
|-------------------------------------------------------------|

                          Part 3 (x2)
|--------------------------------14-14-14-14-15-16------------|
|--------------------------------14-14-14-14-15-16------------|
|----------5-7--5-7--5-7---------12-12-12-12-13-14------------|
|-0-0-0--0----------------0-0-0-------------------------------|
|-------------------------------------------------------------|
|-------------------------------------------------------------|

                          Part 4
|----------------------------14-14-14-14-15-16----------------|
|----------------------------14-14-14-14-15-16----------------|
|---------10-10-9-7----------12-12-12-12-13-14----------------|
|-0-0-0-0---------0---0-0-0-----------------------------------|
|-------------------------------------------------------------|
|-------------------------------------------------------------|

|----------------------------14-14-14-14-15-16----------------|
|----------------------------14-14-14-14-15-16----------------|
|---------7-7-7-5-7----------12-12-12-12-13-14----------------|
|-0-0-0-0-----------0--0-0-0----------------------------------|
|-------------------------------------------------------------|
|-------------------------------------------------------------|

|----------------------------14-14-14-14-15-16----------------|
|----------------------------14-14-14-14-15-16----------------|
|---------10-10-9-7----------12-12-12-12-13-14----------------|
|-0-0-0-0---------0---0-0-0-----------------------------------|
|-------------------------------------------------------------|
|-------------------------------------------------------------|

|-----------------------------14-14-14-14-15-16---------------|
|-----------------------------14-14-14-14-15-16---------------|
|---------9--9-10---7---------12-12-12-12-13-14---------------|
|-0-0-0-0--------------0-0-0----------------------------------|
|-------------------------------------------------------------|
|-------------------------------------------------------------|

|-------------------------------------------------------------|
|-------------------------------------------------------------|
|---------9-x-10-x-9--x-7--x-5--5---5-5-5---7-------7-----7---|
|-0-0-0-0-------------------------------------0-0-0---0-0-----|
|-------------------------------------------------------------|
|-------------------------------------------------------------|

|-------------------------------------------------------------|
|-------------------------------------------------------------|
|---------------7----------------7------5---------7-----------|
|-0-0-0-0-0-0-0----0-0-0-0-0-000----0-0---0-0-0-0-------------|
|-------------------------------------------------------------|
|-------------------------------------------------------------|

|-----------------------------------------------------------------------|
|-----------------------------------------------------------------------|
|---------------7----------------7------5-----7-----10-----9-----10-----|
|-0-0--0-0-0--0----0-0-0-0-0-0-0----0-0---0-0---0-0----0-0---0-0----0---|
|-----------------------------------------------------------------------|
|-----------------------------------------------------------------------|

|-----------------------------------------------------------------------|
|-----------------------------------------------------------------------|
|-7-------------7----------------7------5---------7----------------7----|
|---0-0-0-0-0-0----000-0-0-0-0-0----0-0---0-0-0-0----0-0-0-0-0-0-0------|
|-----------------------------------------------------------------------|
|-----------------------------------------------------------------------|

|-------------------------------------------------------------|
|-------------------------------------------------------------|
|---------------7------5---------7----------------7-----------|
|-0-0-0-0-0-0-0----0-0---0-0-0-0----0-0-0-0-0-0-0-------------|
|-------------------------------------------------------------|
|-------------------------------------------------------------|

|-------------------------------------------------------------|
|-------------------------------------------------------------|
|---------------7------10-----9------7-------------7----------|
|-0-0-0-0-0-0-0----0-0----0-0---0-0----0-0-0-0-0-0------------|
|-------------------------------------------------------------|
|-------------------------------------------------------------|

|-------------------------------------------------------------|
|-------------------------------------------------------------|
|-------------------7-----5-5---------7-----------------7-----|
|-0-0-0--0-0--0-0-0----0-------0-0-0----0--0-0-0--0-0-0-------|
|-------------------------------------------------------------|
|-------------------------------------------------------------|

|-------------------------------------------------------------|
|-------------------------------------------------------------|
|--------------7----------------7------5---------7------------|
|-0-0-0--0-0-0----0-0-0-000-0-0----0-0---0-0-0-0--------------|
|-------------------------------------------------------------|
|-------------------------------------------------------------|

|---------------------------------------------------------------------|
|---------------------------------------------------------------------|
|---------------7----------------7------5---------7----------------7--|
|-0-0-0-0-0-0-0----0-0-0-0-0-0-0----0-0---0-0-0-0----0-0-0-0-0-0-0----|
|---------------------------------------------------------------------|
|---------------------------------------------------------------------|

|---------------------------------------------------------------------|
|---------------------------------------------------------------------|
|---------------7------5---------7-----------------7----------------7-|
|-0-0-0-0-0-0-0----0-0---0-0-0-0----0-0-0-0-0-0--0----0-0-0-0-0-0-0---|
|---------------------------------------------------------------------|
|---------------------------------------------------------------------|

            
            
Suggest correction
Creating personal tab
Creating personal tab
You can edit any tab online and save it as your Personal.

You can edit, replace or remove any tab part or add personal notes – all changes will be seen only by you.

Personal tabs can be accessed anytime from any device, even offline.
Learn more »
comments
print report bad tab
4 comments total. Showing first comments.
+2 reply
tiv0 114 Aug 02, 2007 09:31 AM

good tab
i play the song on a four string and it works for me, but knowing les, i have no doubts about it being played on a six string

0 reply
Zachy Boy 279 Aug 31, 2007 10:04 PM

why the hell would you tab it out for a 6 anyways?

0 reply
bassmastabilljo 523 Mar 13, 2008 12:04 PM

yeah come on les plays a 4-string

guest
You may want to rate the tab now too:
select rating
Wanna post a correction for this tab? Suggest correction