Oops, an error
Loading. Please wait.

The Antipop Bass

version 2
version 2

Whole song

Interactive

by Primus
8,059 views 12 this week
no commentswrite comment
1 2 3 4 5
x 3
add to favorites
×
Save as Personal and add changes to this tab that will be seen only by you. Learn more ›
launch autoscroll
font size
0
reset
guitar tuner
Autoscroll
slow
fast
+/-
esc
set tempo
stop
Difficulty
intermediate
Intro
G|---------------------------------|
D|*--------------------------------|
A|*--0-----------------------------|
E|--------2------------------------|

G|---------------------------------|
D|-------------------------------*-| -2 times
A|----0--------3-----------------*-|   
E|--------2------------------------|
              
G|---------------------------------|
D|---------------------------------|
A|------0------------Fills---------|
E|----------2----------------------|

G|---------------------------------|
D|---------------------------------|
A|-----0----------3----------------|
E|----------2----------------------|

G|---------------------------------|
D|---------------------------------|
A|-----0---------------------------|
E|-----------2---------------------|

G|---------------------------------|
D|---------------------------------|
A|-----0-------------3-------------|
E|------------2--------------------|

G|---------------------------------| ----------------
D|*------------------------------*-|
A|*--------3---------------------*-|   
E|---0--2-----2--------------------|
     S  S  P  S                                       -------2 times

G|---------------2----5555---------|
D|-----------------44--------------|
A|--------3------------------------|
E|--0--2------2--------------------| ----------------
    S  S  P   S  P PP PPPP

G|---------------------------------|
D|---------------------------------|
A|---------------------------------|
E|--22-22-22-----------------------|
    SS SS SS

Heres the fun part

G|------------2---------2----------|
D|---------------------------------|
A|---------------------------------|
E|--0h2-0h2-----0h2-0h2------------|
    S   S     P S   S   P

G|------------2---------2-3-2------|
D|---------------------------------|
A|---------------------------------|
E|--0h2-0h2-----0h2-0h2------------|
    S   S     P S   S   P

G|------------2---------2----------|
D|---------------------------------|
A|---------------------------------|
E|--0h2-0h2-----0h2-0h2------------|
    S   S     P S   S   P

G|------------2---------2-3-2------|
D|---------------------------------|
A|---------------------------------|
E|--0h2-0h2-----0h2-0h2------------|
    S   S     P S   S   P

 Verse
G|---------------------------------|
D|*------------------------------*-|
A|*------------------------------*-|
E|---0h2-0h2-0h2-0h2---------------|
     S   S   S   S
I suck information....

G|---------------------------------|
D|---------------------------------|
A|-0h2-0h2-0h2-0h2-----------------|
E|---------------------------------|
   S   S   S   S
As my belly...

G|---------------------------------|
D|---------------------------------|
A|-2h4-2h4-5-6-7-8-----------------|
E|---------------------------------|
   S   S   S S S S

 Chorus
G|------------2---------2----------|
D|---------------------------------|
A|---------------------------------|
E|--0h2-0h2-----0h2-0h2------------|
    S   S     P S   S   P              -----------3 times

G|------------2---------2-3-2------|
D|---------------------------------|
A|---------------------------------|
E|--0h2-0h2-----0h2-0h2------------|
    S   S     P S   S   P


G|------------2---------2----------|
D|---------------------------------|
A|---------------------------------|
E|--0h2-0h2-----0h2-0h2------------|
    S   S     P S   S   P           --------------2 more times

G|------------2---------2-3-2------|
D|---------------------------------|
A|---------------------------------|
E|--0h2-0h2-----0h2-0h2------------|
    S   S     P S   S   P

Verse again

Chorus again

Extended chorus...same riff over and over again

Intro-again

 skip to 2nd part of intro...this one
G|---------------------------------| 
D|*------------------------------*-|
A|*--------3---------------------*-|   
E|---0--2-----2--------------------|
     S  S  P  S                   


 Pushing misinformation...ect.
G|--------------|-------------------|
D|*-------3----*|-------5-----------|
A|*-0--2-----2-*|-2--4-----4-5-6-7-8|
E|--------------|-------------------|
    S  S  P  S    S  S  P  S S S S S

Chorus

 after "the man you cannot stop. GO!"
 Outro three times
G|-----------2-2--|-----------2-3-----|
D|*-------------*-|-------------------|
A|*-------------*-|-------------------|
E|--0h2-0h2-------|--0h2-0h2----------|
    S   S    P P     S   S    P P

G|-----------2-2--|-----------2-3-----|
D|*-------------*-|-------------------|
A|*-------------*-|-------------------|
E|--0h2-0h2-------|--0h2-0h2----------|
    S   S    P P     S   S    P P

G|-----------2-2--|-----------2-3-----|
D|*-------------*-|-------------------|
A|*-------------*-|-------------------|
E|--0h2-0h2-------|--0h2-0h2----------|
    S   S    P P     S   S    P P

 End with
G|-------------------|
D|-------------------|
A|--0----------------|
E|-----2-------------|
    S  S


S-Slap
P-Pop
h-Hammer on
p-Pull off
Suggest correction
Give kudos to tab author, rate the tab!
1 2 3 4 5
comments
print report bad tab
guest
You may want to rate the tab now too:
select rating
Wanna post a correction for this tab? Suggest correction