Oops, an error
Loading. Please wait.

The Chastising Of Renegade Bass

version 2
version 2

Whole song

226 views 1 this week
no commentswrite comment
1 2 3 4 5
2 more votes to show rating
add to favorites
launch autoscroll
font size
0
reset
guitar tuner
×
Best way to learn
"The Chastising Of Renegade"
Autoscroll
slow
fast
+/-
esc
set tempo
stop
Author
Difficulty
  follow
intermediate
Les uses a 6-string but it can be done with 5.

Intro/Chorus
G|-14-14h15p14-14-14--14-14h15p14-14-14-|
D|-13-13-------13-13--13-13-------13-13-|
A|-14-14-------14-14--14-14-------14-14-|
E|--------------------------------------|
B|--------------------------------------|

G|-14-14h15p14-14-14--14-14-14-14/17-15-|
D|-13-13-------13-13--13-13-13-13/16-14-|
A|-14-14-------14-14--14-14-14-14/17-15-|
E|--------------------------------------|
B|--------------------------------------|

Verse
G|-0/////-------------------------------|
D|---------------0--0-------------------|
A|--------xxxx-0------------------------|
E|----------------------0-3-------------|
B|--------------------------------------|


"He thought that no one would mind"
G|-0h5----------------------------------|
D|-----5\-------------------------------|
A|--------------------------------------|
E|---------2--3-------------------------|
B|--------------------------------------|

G|--------------------------------------|
D|---------------0--0-------------------|
A|--------xxxx-0------------------------|
E|----------------------0-3-------------|
B|--------------------------------------|


Bridge
G|--------------------------------------|
D|--------------------------------------|
A|-----------4--5--4-5-6-7--------------|
E|------4--5----------------4-5-6-7-----|
B|-2--3-----------------------------2-3-|

(Add this the 2nd time of the bridge)
G|--------------------------------------|
D|-----------6--7--6-7-8-9--------------|
A|------6--7---------------6-7-8-9------|
E|-4--5-----------------------------4-5-|
B|--------------------------------------|

G|--------------------------------------|
D|--------------------------------------|
A|-----------6--7--6-7-8-9--------------|
E|------6--7----------------6-7-8-9-----|
B|-2--3-----------------------------2-3-|

Guitar Solo/Outro
G|--------------------------------------|
D|--------------------------------------|
A|--------------------------------------|
E|--------------------------------------|
B|-2-2-2-2--2-2-2-2--2-2-2-2------------|

G|--------------------------------------|
D|--------------------------------------|
A|--------------------------------------|
E|--------------------------------------|
B|-2-2-2-2--2-2-2-2--2-2-2-2------------|

G|--------------------------------------|
D|--------------------------------------|
A|--------------------------------------|
E|--------------------------------------|
B|-2-2-2-2--2-2-2-2--2-2-2-2------------|

G|--------------------------------------|
D|--------------------------------------|
A|--------------------------------------|
E|--------------------------------------|
B|-2-2-2-2--2-2-2-2--2-2-2-2------------|

G|--------------------------------------|
D|--------------------------------------|
A|---------------------------4--------4-|
E|--------------------------------------|
B|-2-2-2-2--2-2-2-2--2-2-2-2---2-2-2-2--|

G|--------------------------------------|
D|--------------------------------------|
A|---------------------------4----------|
E|--------------------------------------|
B|-2-2-2-2--2-2-2-2--2-2-2-2------------|

G|--------------------------------------|
D|--------------------------------------|
A|--------------------------------------|
E|--------------------------------------|
B|-2-2-2-2--2-2-2-2--2-2-2-2------------|

G|----------------------------6-6/7-----|
D|----------------------------6-6/7-----|
A|----------------------------4-4/5-----|
E|--------------------------------------|
B|-2-2-2-2--2-2-2-2--2-2-2-2------------|


G|----------------------------6-6/7-----|
D|----------------------------6-6/7-----|
A|----------------------------4-4/5-----|
E|--------------------------------------|
B|-2-2-2-2--2-2-2-2--2-2-2-2------------|

G|--------------------------------------|
D|--------------------------------------|
A|--------------------------------------|
E|-9-9-9-9--9-9-9-9--9-9-9-9--9-9-9-9---|
B|--------------------------------------|

G|--------------------------------------|
D|--------------------------------------|
A|--------------------------------------|
E|-9-9-9-9--9-9-9-9--9-9-9-9--9-9-9-9---|
B|--------------------------------------|

G|--------------------------------------|
D|--------------------------------------|
A|--------------------------------------|
E|-9-9-9-9--9-9-9-9--9-9-9-9--9-9-9-9---|
B|--------------------------------------|

G|--------------------------------------|
D|--------------------------------------|
A|--------------------------------------|
E|-9-9-9-9--9-9-9-9--9-9-9-9------------|
B|--------------------------------------|
Suggest correction
Give kudos to tab author, rate the tab!
1 2 3 4 5
comments
print report bad tab
guest
You may want to rate the tab now too:
select rating
Wanna post a correction for this tab? Suggest correction