Oops, an error
Loading. Please wait.

The Last Superpower Aka Rapscallion bass

version 1
version 1

Whole song

Interactive

by Primus
694 views 3 this week
1 commentread comment
1 2 3 4 5
1 last vote to show rating
add to favorites
×
Save as Personal and add changes to this tab that will be seen only by you. Learn more ›
×
You can save this tab as Personal to edit and correct it or add notes. All changes will be seen only by you. Learn more »
launch autoscroll
font size
0
reset
guitar tuner
edit
Autoscroll
slow
fast
+/-
esc
set tempo
stop
Author
Difficulty
This song is played on a fretless 6-string and all of it is tapped.
    
x - Mute Note

Intro:
       
C|-----------------------|
G|-----------------------|
D|---x-------------------|
A|-----x----x---x---x----|
E|-------7---------------|
B|------------6---5---8--|

Verse - chorus - see above

"I Don't Like You"
C|----------------------------|
G|------x-x---x-x-------------|
D|---------x-----x------------|
A|----------x-----x-----------|
E|------------------------3---|
B|-0--0--------------0--0-----|
 

Break: 3:25 - 4:40
     
C|-------------------------------------------|
G|-------------------------------------------|
D|-------------------------------------------|
A|------------------------------------8-8-8--|
E|---------10-----10-----10-----10-----------|
B|-6-8-10------6-8-----6-8-----6-8-----------|


C|-----------------------------------|
G|-----------------------------------|
D|-----------------------------------|
A|----------------------------8-8-8--|
E|-10-----10-----10-----10-----------|
B|-----6-8-----6-8-----6-8-----------|
Suggest correction
Creating personal tab
Creating personal tab
You can edit any tab online and save it as your Personal.

You can edit, replace or remove any tab part or add personal notes – all changes will be seen only by you.

Personal tabs can be accessed anytime from any device, even offline.
Learn more »
Give kudos to tab author, rate the tab!
1 2 3 4 5
comments
print report bad tab
1 comment total.
0 reply
Nuke97 31 Jul 26, 2009 04:43 PM

You are missing one more "A" note for the intro and most of the stuff you wrote is incomplete.Some of the notes are right but you have wrong ones mixed in with them.

guest
You may want to rate the tab now too:
select rating
Wanna post a correction for this tab? Suggest correction