Oops, an error
Loading. Please wait.

The Pressman bass

version 2
version 2

Whole song

by Primus
864 views 3 this week
no commentswrite comment
1 2 3 4 5
1 last vote to show rating
add to favorites
×
Save as Personal and add changes to this tab that will be seen only by you. Learn more ›
×
You can save this tab as Personal to edit and correct it or add notes. All changes will be seen only by you. Learn more »
launch autoscroll
font size
0
reset
guitar tuner
edit
Autoscroll
slow
fast
+/-
esc
set tempo
stop
Author
Difficulty
intermediate
-------------------------------------------------------------------------------
                             The Pressman - Primus
-------------------------------------------------------------------------------

Tabbed By : Louis Richards AKA MadClownDisease
e-mail: hereticbynature@hotmail.com

Tuning: Standard

I can't be bothered writing out which variation goes where and when but here they all are:

Main drone:
G|-0-------------|
D|-5^-5-5--6-5---|
A|---------------|
E|---------------|
   V
Hit the two Gs in a flamenco strum but try and hit the open G softer and bend the 5th on 
D string

Variation 1:
G|-0-------------5/10h11---|
D|-5^-5-5--6-5-----------9-|
A|-------------------------|
E|-------------------------|

If you have a high C string (or simply want to tune all your strings up) it is easier to 
this variation bit as:
C|---------------0h5h6---|
G|-0-------------------4-|
D|-5^-5-5--6-5-----------|
A|-----------------------|
E|-----------------------|

Variation 2:
G|-0------------5-3-|
D|-5^-5-5--6-5--5-3-|
A|------------------|
E|------------------|
   V            V V
Sounds best if you downstroke all flamenco strums for a more aggressive tone but then 
your choice.


So there you go, these are all the three parts that he plays, you can listen out for 
Simple as pie.

| /  slide up
| \  slide down
| h  hammer-on
| p  pull-off
| ~  vibrato
| +  harmonic
| x  Mute note
| ^  Bend note
===============================================================================

            
            
Suggest correction
Creating personal tab
Creating personal tab
You can edit any tab online and save it as your Personal.

You can edit, replace or remove any tab part or add personal notes – all changes will be seen only by you.

Personal tabs can be accessed anytime from any device, even offline.
Learn more »
Give kudos to tab author, rate the tab!
1 2 3 4 5
comments
print report bad tab
guest
You may want to rate the tab now too:
select rating
Wanna post a correction for this tab? Suggest correction