Oops, an error
Loading. Please wait.

The Toys Go Winding Down Bass

version 4
version 4

Whole song

Interactive

by Primus
174 views 1 this week
no commentswrite comment
1 2 3 4 5
2 more votes to show rating
add to favorites
launch autoscroll
font size
0
reset
guitar tuner
Autoscroll
slow
fast
+/-
esc
set tempo
stop
Author
Difficulty
advanced
Here ya go. For the main riff, the notes are triplets so they're close together.
101010 means 10 10 10. 111111 means 11 11 11.

Intro
G|--------------------------|
D|---------------------3\---| x4
A|-2-2--2---3p2-2-2--2---3\-|
E|-------1-1----------------|

Main Riff (hard as fuck triplets)
G|---------101010-111111--------------------|
D|-888-888---------------888-888-111111-888-| x3
A|------------------------------------------|
E|------------------------------------------|
then...
G|---------101010-111111-----------------------|
D|-888-888---------------888-111111-101010-999-| x1
A|---------------------------------------------|
E|---------------------------------------------|

Chorus
G|--------------------------------|
D|--------333-444-----------------| x3
A|-111-111--------111-111-444-111-|
E|--------------------------------|

G|--------------------------------|
D|--------333-444-----------------|
A|-111-111--------111-444-333-222-|
E|--------------------------------|

Chorus 2 (part during guitar solo) x2
G|----3-------------------------|
D|----3-333-444-----------------| x3
A|-111----------111-111-444-111-|
E|------------------------------|

G|----3-------------------------|
D|----3-333-444-----------------| x1
A|-111----------111-444-333-222-|
E|------------------------------|

Bridge
G|---------------|------------------------|
D|---------------|------------------------|
A|-1-------------|-/13--13h15p13-13h15p13-|
E|---------------|------------------------|

G|-----------------------------------|
D|-----------------------------------|
A|------13-13------13-13------13-15\-|
E|-13h15------13h15------13h15-------|

G|--------------------|
D|------3-4-----------|
A|-0h1-1----1-1-1-----|
E|----------------1h2-|

G|-------------------------------6-4----4---|
D|------3-4-4-3-3----444-3-444-3----6-5--5--|
A|-1-1-1----------1-1-----------------------|
E|------------------------------------------|

Then you play the main part of the bridge a couple more times and go back to the chorus. 
All in all, pretty easy except for the triplets.

             Intro
             Verse
             Chorus
             Verse
             Chorus 2
             Bridge
             Chorus
             Outro (just the main riff)
Suggest correction
Give kudos to tab author, rate the tab!
1 2 3 4 5
comments
print report bad tab
guest
You may want to rate the tab now too:
select rating
Wanna post a correction for this tab? Suggest correction