Oops, an error
Loading. Please wait.

Tommy The Cat Tab

version 1
version 1

Whole song

by Primus
20,354 views 15 this week
2 commentsread comments
1 2 3 4 5
x 5
add to favorites
launch autoscroll
font size
0
reset
how to read this tab
guitar tuner
backing track
0:00
0:00
×
Best way to learn
"Tommy The Cat"
Autoscroll
slow
fast
+/-
esc
set tempo
stop
TOMMY THE CAT
As recorded by Primus
(From the 1991 Album SAILING THE SEAS OF CHEESE)

I added both guitar and bass into this transcription cause i messed it up but the tab is 100% correct

(Gtr 1) (E A D G B E) - 'Gtr dist. tone'
(Gtr 2) (B E A D G) - 'fretless bass'
Temp: 132

[Intro]
  4/4
                                (Gtr 1)
   W          W                  H              Q         Q
e|----------|----------------|--------------------------12------------|
B|----------|----------------|-12\----------------------15b17=========|
G|----------|----------------|-12\-------------4/---------------------|
D|----------|----------------|----------------------------------------|
A|----------|----------------|----------------------------------------|
E|----------|----------------|----------------------------------------|
 |
 | (Gtr 2)
 | W          Q  E E Q   Q       E  S S S S S S S  S S S  S     S S S
G|----------|----------------|--9-------------------------------------|
D|----------|----------------|--9----------3h5----5---5--------5---0--|
A|----------|----------------|----------------------------------------|
E|----------|------1s3s=10\--|-----0-3-3-x-----5----4----3-------0----|
B|----------|----------------|----------------------------------------|

     ~~~~~
                       |---3---|        |---3---|
    +H                S  S    S  S  S  S  S    S  S  S
e|---------------------------------------------------------|
B|-(15)r-------------12h15p==12----12-15p12------12--------|
G|------------------------------14------------14----14b15==|
D|---------------------------------------------------------|
A|---------------------------------------------------------|
E|---------------------------------------------------------|
 |
 |   E   S S S S S S  S    S     S  S  S    S     S  S
G|---9-----------------------------------------------------|
D|---9-----------3h5-------5--------5-------5--------0-----|
A|---------------------------------------------------------|
E|-------0-3-3-x------5----------4-----3----------0--------|
B|---------------------------------------------------------|

              ~~~~                                                             ~~~~~~~
                                  |---3---|
    +Q       +Q         +S   +S   S  S    S  S  S  S  S    S  S  S  S  S  E    S  +Q         E E
e|------------------------------------------------------|--------------------------------------------|
B|------------------------------------------------------|--------------------------------------------|
G|-(14)-----(14)-------(14)r(14)-12------12-------------|--------------------------------------------|
D|----------------------------------14------14p12-------|-12-----------------------------------------|
A|------------------------------------------------14p13-|----14p13-----------------------------------|
E|------------------------------------------------------|----------15-15p13---15-(15)-------13-------|
 |
 |   E  S S   S  S S S   S    S   S    S     S  S  S  S    E     S  S  S  S S  S   E   S  S  E E
G|---9--------------------------------------------------|--9--------------------------------15-------|
D|---9-------------3h5--------5--------5--------5-----0-|--9----------------3h=5------10s12----------|
A|------------------------------------------------------|--------------------------------------------|
E|------0-3---3--x-------5--------4----------3-----0----|--------0--3--3--x--------------------3\----|
B|------------------------------------------------------|--------------------------------------------|
 
   E    S S E   S S +S  S S S S S S S   E   S S E   S S +S  S S S S S S S
e|------------------------------------|-----------------------------------|
B|-5----5-5-5---5-5-(5)-5-------------|-5---5-5-5---5-5-(5)-5---5---6-----|
G|-7b9====================4-4-5-5-6-7-|-7b9-------------------4---5---5-6-|
D|------------------------------------|-----------------------------------|
A|------------------------------------|-----------------------------------|
E|------------------------------------|-----------------------------------|
 |
 | E    S S S S S S  S  S S S S S S S   E   S S S S S S  S  S S S S S S S
G|-9----------------------------------|-9---------------------------------|
D|-9------------3h5-----5---5---5---0-|-9-----------3h5-----5---5---5---0-|
A|------------------------------------|-----------------------------------|
E|------0-3-3-x------5----4---3---0---|-----0-3-3-x------5----4---3---0---|
B|------------------------------------|-----------------------------------|
 
   E    S S E   S S +S  S S S S S S S   E    S S E   S S +S  S S S S S S S
e|------------------------------------|------------------------------------|
B|-5----5-5-5---5-5-(5)-----5---6---7-|-5----5-5-5---5-5-(5)-5-------------|
G|-7b9==================4-4---5---6---|-7b9====================4-x-5-5-5-x-|
D|------------------------------------|------------------------------------|
A|------------------------------------|------------------------------------|
E|------------------------------------|------------------------------------|
 |
 | E    S S S S S S  S  S S S S S S S   E    S S S S S S  S  S S S S S S S
G|-9----------------------------------|-9----------------------------------|
D|-9------------3h5-----5---5---5---0-|-9------------3h5-----5---5---5---0-|
A|------------------------------------|------------------------------------|
E|------0-3-3-x------5----4---3---0---|------0-3-3-x------5----4---3---0---|
B|------------------------------------|------------------------------------|
 
   E    S S E   S S +S  S S S S S S S   E   S S E   S S +S  S E   S S S S
e|------------------------------------|-----------------------------------|
B|-5----5-5-5---5-5-(5)---------6-----|-5---5-5-5---5-5-(5)-------6-6-6---|
G|-7b9==================4-4-4-5---5-7-|-7b9-----------------4-4---5-5-5-6-|
D|------------------------------------|-----------------------------------|
A|------------------------------------|-----------------------------------|
E|------------------------------------|-----------------------------------|
 |
 | E    S S S S S S  S  S S S S S S S   E   S S S S S S  S  S S S S S S S
G|-9----------------------------------|-9---------------------------------|
D|-9------------3h5-----5---5---5---0-|-9-----------3h5-----5---5---5---0-|
A|------------------------------------|-----------------------------------|
E|------0-3-3-x------5----4---3---0---|-----0-3-3-x------5----4---3---0---|
B|------------------------------------|-----------------------------------|

   E    S S E   S S +S  S S S S S S S
e|------------------------------------|
B|-5----5-5-5---5-5-(5)-5-5-5-6-6-----|
G|-7b9==================4-4---5---5-7-|
D|------------------------------------|
A|------------------------------------|
E|------------------------------------|
 |
 | E    S S S S S S  S  S S S S S S S
G|-9----------------------------------|
D|-9------------3h5-----5---5---5---0-|
A|------------------------------------|
E|------0-3-3-x------5----4---3---0---|
B|------------------------------------|

   E    S S E   S S +S  S S S S E   S   E E Q  H      Wx3
e|------------------------------------|-0-----------|--------|
B|-5----5-5-5---5-5-(5)---------6-----|-0-----------|--------|
G|-7b9==================4-4-4-5-----5-|-0-----------|--------|
D|------------------------------------|-0-----------|--------|
A|------------------------------------|-------------|--------|
E|------------------------------------|-------------|--------|
 |
 | E    S S S S S S  S  S S S S S S S   E E Q  H      Wx3
G|-9----------------------------------|-9-----------|--------|
D|-9------------3h5-----5---5---5---0-|-9-----------|--------|
A|------------------------------------|-------------|--------|
E|------0-3-3-x------5----4---3---0---|-------------|--------|
B|------------------------------------|-------------|--------|

[Verse]
   Wx10          W            W
e|-------------|-----------|---------------------------------|
B|-------------|-----------|---------------------------------|
G|-------------|-----------|---------------------------------|
D|-------------|-----------|---------------------------------|
A|-------------|-----------|---------------------------------|
E|-------------|-----------|---------------------------------|
 |
 | Wx10          W            S  S  S  S  E  S  S  S S E E E
G|-------------|-----------|---------------------------------|
D|-------------|-----------|---------------------------------|
A|-------------|-----------|---------------------------------|
E|-------------|-----------|-19-19S17S15S14S12S11s10S8S7S5S3-|
B|-------------|-2/--------|---------------------------------|

   (Gtr 2)
   E S S S S S S S S S S S S S S   E S S S S S S S S S S S S S S
G|-9-----------------------------|-9-----------------------------|
D|-9---------3h5---5---5---5---0-|-9---------3h5---5---5---5---0-|
A|-------------------------------|-------------------------------|
E|---0-3-3-x-----5---4---3---0---|---0-3-3-x-----5---4---3---0---|
B|-------------------------------|-------------------------------|

   E S S S S S S S S S S S S S S   E S S S S S S E E E E
G|-9-----------------------------|-9---------------------|
D|-9---------3h5---5---5---5---0-|-9---------3h5---------|
A|-------------------------------|-----------------------|
E|---0-3-3-x-----5---4---3---0---|---0-3-3-x-----------0-|
B|-------------------------------|---------------0-2-3---|

[Verse]
     (Gtr 1)
     W                               W                               6x
e|--------------------------------|---------------------------------|
B|o-------------------------------|--------------------------------o|
G|--------------------------------|---------------------------------|
D|--------------------------------|---------------------------------|
A|o-------------------------------|--------------------------------o|
E|--------------------------------|---------------------------------|
 |
 |   (Gtr 2)
 |   E S S S S S S S S S S S S S S   E S S S S S S S S S S S S S S   6x
G|--9-----------------------------|-9-------------------------------|
D|o-9---------3h5---5---5---5---0-|-9---------3h5---5---5---5---0--o|
A|--------------------------------|---------------------------------|
E|o---0-3-3-x-----5---4---3---0---|---0-3-3-x-----5---4---3---0----o|
B|--------------------------------|---------------------------------|

    \4_______________________________
    W
e|----------------------------------|
B|-19-------------------------------|
G|-19-------------------------------|
D|----------------------------------|
A|----------------------------------|
E|----------------------------------|
 |
 |  E   S S S S S S S S S S S S S S
G|--9-------------------------------|
D|--9-----------3h5---5---5---5---0-|
A|----------------------------------|
E|------0-3-3-x-----5---4---3---0---|
B|----------------------------------|

                                     [Verse]
    +W                                 Q   Q  H
e|----------------------------------|-------------|
B|-(19)-----------------------------|-------------|
G|-(19)-----------------------------|-------------|
D|----------------------------------|-------------|
A|----------------------------------|-------------|
E|----------------------------------|-0-----------|
 |
 |   E  S S S S S S S S S S S S S S    E E Q  H
G|---9------------------------------|-9-----------|
D|---9----------3h5---5---5---5---0-|-9-----------|
A|----------------------------------|-------------|
E|------0-3-3-x-----5---4---3---0---|-------------|
B|----------------------------------|-------------|
 
   Wx11            W
e|-------------|---------------------------------|
B|-------------|---------------------------------|
G|-------------|---------------------------------|
D|-------------|---------------------------------|
A|-------------|---------------------------------|
E|-------------|---------------------------------|
 |
 | Wx11            E E  E  +E    S  S S  S S S E
G|-------------|-/19-------------------------0---|
D|-------------|-------18-(18)\-10s15-x-14-------|
A|-------------|-------------------------------0-|
E|-------------|---------------------------------|
B|-------------|---------------------------------|

[Chorus]
   (Gtr 2)
   E S S S S S S S S S S S S S S   E S S S S S S S S S S S S S S
G|-9-----------------------------|-9-----------------------------|
D|-9---------3h5---5---5---5---0-|-9---------3h5---5---5---5---0-|
A|-------------------------------|-------------------------------|
E|---0-3-3-x-----5---4---3---0---|---0-3-3-x-----5---4---3---0---|
B|-------------------------------|-------------------------------|
 
   E S S S S S S S S S S S S S S   E S S S S S S H
G|-9-----------------------------|-9------------------|
D|-9---------3h5---5---5---5---0-|-9---------3-5------|
A|-------------------------------|--------------------|
E|---0-3-3-x-----5---4---3---0---|---0-3-3-x----------|
B|-------------------------------|--------------------|

[Guitar Solo]
   (Gtr 1)
                      ~~~~~~~
    Q.             S  S  +Q         E    S  +S
e|-12-------------12-12-(12)-------12---12-(12)-|
B|-15b17==========15-15-(15)-------15---15r(15)-|
G|----------------------------------------------|
D|----------------------------------------------|
A|----------------------------------------------|
E|----------------------------------------------|
 |
 | (Gtr 2)
 |  E     S S S S  S  S   S  S S S  S S  S   S
G|--9-------------------------------------------|
D|--9--------------3h=5------5---5----5------0--|
A|----------------------------------------------|
E|--------0-3-3-x---------5----4----3----0------|
B|----------------------------------------------|
 
                          ~~~~~~~             ~~~~~~~~~~~~~~
    Q.            S       S  +E     S   S  S  E.        +Q      Q       S  S  S  S  S     +S   S  S
e|-12------------------------------------------------|----------------------------------------------|
B|-15b18---------15pb17==15-(15)---12rh15p12-12------|-(12)---------------12----12------------------|
G|---------------------------------------------------|-----------------------14----14b16r(14)-12----|
D|---------------------------------------------------|-------------------------------------------14-|
A|---------------------------------------------------|----------------------------------------------|
E|---------------------------------------------------|----------0-----------------------------------|
 |
 |  E    S S S S  S       S   S  S  S   S  S  S  S S     E  S S S S S S S  S  S  S  S      S   S  S
G|--9------------------------------------------------|---9------------------------------------------|
D|--9-------------3h======5------5------5-----5----0-|---9----------3h5----5-----5---------5------0-|
A|---------------------------------------------------|----------------------------------------------|
E|-------0-3-3-x--------------5-----4------3-----0---|------0-3-3-x-----5-----4-----3----------0----|
B|---------------------------------------------------|----------------------------------------------|

    |---3---|
    E  E    E   S  E    S  S  S  S  S  S  E.
e|-------------------------------------------------|
B|----14s==17--------------------------------------|
G|-12-------------12------12-----------------------|
D|---------------------14----14p12-----------------|
A|---------------------------------14-13-----------|
E|---------------------------------------12\-------|
 |
 |  E    S    S S  S S  S  S  S  S  S  S  S   S  S
G|--9------------------------12-12-12-11-11--10-10-|
D|--9----------------3h=5----12-12-12-11-11--10-10-|
A|-------------------------------------------------|
E|-------0----3-3--x-------------------------------|
B|-------------------------------------------------|
 
    S     +S   S  S  E    S  a  S  S  S  S  S  S  S  E
e|-------------------------------------------------------|
B|-------------------------------------------------------|
G|-------------------------------------------------------|
D|--------------------------------12-14-14-14-14-12------|
A|-12b14r(12)p10----10---12-12S14-------------------14---|
E|---------------12--------------------------------------|
 |
 |  E          S  S  S S  S     S  S  S  S  S  S  S  S S
G|--9----------------------------------------------------|
D|--9---------------------3h====5-----5-----5-----5----0-|
A|-------------------------------------------------------|
E|-------------0--3--3-x-----------5-----4-----3-----0---|
B|-------------------------------------------------------|
 
    S  S  S  S      +E      S  S  Q            E    E
e|------------------------------------------------------|
B|------------------------------------------------------|
G|----------14b16==(14)r--------------------------------|
D|-14p12------------------------------------------------|
A|-------13----------------12h13p12tr13-------12\-------|
E|------------------------------------------------------|
 |
 |  E     S  S       S   S  S  S  S     S S S  S  S S S
G|--9---------------------------------------------------|
D|--9-----------------------3h=5--------5---5-----5---0-|
A|------------------------------------------------------|
E|--------0--3-------3---x--------5-------4----3----0---|
B|------------------------------------------------------|

                  ~~~~~~~~
   Q       +E     E   +Q        S E.       +E   E    E  E    S  S  S  S  S  S  S  S
e|---------------------------------------|------------------------------------------|
B|---------------------------------------|----------12-12------------14p12-14-14p12-|
G|---------------[5]--(5)----------------|----------12-12---14p12----------14-14p12-|
D|-7b9r====(7)------------------5--------|------------------------14----------------|
A|--------------------------------7------|-(7)s14-----------------------------------|
E|---------------------------------------|------------------------------------------|
 |
 | E   S S  S  S  S S  S  S S S S S  S S    E   S S  E  S S  E     E     S  E     S
G|-9-------------------------------------|--9---------------------------------------|
D|-9--------------3h5-----5---5---5----0-|--9---------------------------------------|
A|---------------------------------------|--------------x-x--2-----2-----x--1-------|
E|-----0-3--3--x-------5----4---3----0---|------0-3--3--x-x--2-----2-----x--1-----0-|
B|---------------------------------------|------------------------------------------|
 
    S  S  S  S  S  S  S  S  S  S  S  S  S  S  S  S
e|-14----------------------14----------------------|
B|-14----14p12-14-14-14p12-14p12-14-14p12-13-------|
G|----12-14p12-14-------------------14p12----14p12-|
D|-------------------------------------------------|
A|-------------------------------------------------|
E|-------------------------------------------------|
 |
 |  E     S  S  S  S  S  S  S  S  S  S  S  S  S  S
G|--9----------------------------------------------|
D|--9-----------------3h=5-----5-----5-----5-----0-|
A|-------------------------------------------------|
E|--------0--3--3--x--------5-----4-----3-----0----|
B|-------------------------------------------------|
 
    S  S  S  S S  S   S  S  S  S  S  S  S  S  E
e|------------------------------------------------|
B|-16p12------------[12]--------------------------|
G|-------14p12---12-----12h14p12----12------------|
D|-------------------------------14----14p12------|
A|-------------------------------------------14---|
E|------------------------------------------------|
 |
 |  E     S  S S  S   S  S  S  S  S  S  S  S  S S
G|--9---------------------------------------------|
D|--9-----------------3h=5-----5-----5-----5----0-|
A|------------------------------------------------|
E|--------0--3-3--x---------5-----4-----3-----0---|
B|------------------------------------------------|

       ~~~~~~~~~~~~~~~~~~~~~~
    a  Q.           E    +E     a  E    E    S  S
e|------------------------------------------------|
B|------------------------------------------------|
G|-14s15----------[15]--(15)----------------------|
D|-----------------------------14s12--------12s14-|
A|-------------------------------------10---------|
E|------------------------------------------------|
 |
 |     E  S S S S   S S   S  S     S S  S S  S  S
G|-----9------------------------------------------|
D|-----9------------3h5------5-------5----5-----0-|
A|------------------------------------------------|
E|--------0-3-3-x---------5--------4----3----0----|
B|------------------------------------------------|
 
    S  S  E   S  S  E    S  S  E    S  E.        S  S  S  S  S  S  S  S  S  S  E    Q
e|--------------------------------------------|------------------------------------------------|
B|--------------------------------------------|------------------------------------------------|
G|--------------------------------------------|------------------------------------12~~--------|
D|--------------------------------------------|----------------------------12s14---------------|
A|---------------------------------10---------|-10----12-12p10----10---------------------------|
E|-12-12p10-----12p10---12-10-12------12------|----12----------12----12-10---------------------|
 |
 |  E     S S S  S  S S  S  S  S S  S  S  S S    E     S  S  S  S  S  S  S  S  S S  S S S S
G|--9-----------------------------------------|--9---------------------------------------------|
D|--9---------------3h5-----5----5-----5----0-|--9-----------------3h=5-----5----5----5---0----|
A|--------------------------------------------|------------------------------------------------|
E|--------0-3-3--x-------5-----4----3-----0---|--------0--3--3--x--------5-----4----3---0------|
B|--------------------------------------------|------------------------------------------------|

     ~~~~
    +E   +E     E    E    a  E    Q.
e|---------------------------------------------|
B|------------------15---15s12---12------------|
G|-(12)-(12)\----------------------------------|
D|---------------------------------------------|
A|---------------------------------------------|
E|---------------------------------------------|
 |
 |   E    S   S S S  S S     S S  S  S S S S S
G|---9-----------------------------------------|
D|---9---------------3h5-------5-----5---5---0-|
A|---------------------------------------------|
E|--------0---3-3-x----------5----4----3---0---|
B|---------------------------------------------|
 
   S S  E    S  E   S  E    E    E   S  S
e|----------------------------------------|
B|----------------------------------------|
G|----------12-------------16-------------|
D|---9s14------14S==9s14--------14---9s14-|
A|----------------------------------------|
E|----------------------------------------|
 |
 | E    S S  S  S S S  S S  S S  S S S  S
G|-9--------------------------------------|
D|-9--------------3h5----5----5----5----0-|
A|----------------------------------------|
E|------0-3--3--x------5----4----3---0----|
B|----------------------------------------|
 
    +S   S  E    S  S  E  E  S  S  +E    E
e|------------------------------------------|
B|------12---------14-------12--------------|
G|------12----------------------------------|
D|-(14)----14---12----12-11----11-(11)--11/-|
A|------------------------------------------|
E|------------------------------------------|
 |
 |   E      S S  S  S  E  Q        +Q
G|---9--------------------------------------|
D|---9-----------------5s19-------(19)\-----|
A|------------------------------------------|
E|----------0-3--3--x-----------------------|
B|------------------------------------------|
 
    E  S  S  +E     E     E     E     E     E
e|----------------------------------------------|
B|-20s14-----------18s===12----------14\--------|
G|----------------------------------------------|
D|-------15-(15)---------------12---------------|
A|----------------------------------------------|
E|----------------------------------------------|
 |
 |  E  S  S   S  S  S  S  S  S  S  S  S   S S S
G|-16-------------------------------------------|
D|-16--------------10h12----12----12-----12---0-|
A|----------------------------------------------|
E|-----0--9--10--x-------12----11----10-----0---|
B|----------------------------------------------|

    ~~
    Q       a   E    E     S  S  e     e     e
e|------------------------------------------------|
B|------------------------------------------------|
G|-13-----(13)s=7---[7]----7--7--7-----7-----7----|
D|------------------------------------------------|
A|------------------------------------------------|
E|------------------------------------------------|
 |
 |  E S S       S S  S  S  S  S  S  S  S  S  S  S
G|-16---------------------19-19-18-18-18-17-17-17-|
D|-16---------------10h12-19-19-18-18-18-17-17-17-|
A|------------------------------------------------|
E|----0-9------10-x-------------------------------|
B|------------------------------------------------|

           ~~~~~~
    S S  S S +E.       S      +E     +E     +S     +E.
e|---------------------9pb10==(9)r===(9)----(9)b10-(9)-----|
B|---------7-(7)-------------------------------------------|
G|--7-9-10-------------------------------------------------|
D|---------------------------------------------------------|
A|---------------------------------------------------------|
E|---------------------------------------------------------|
 |
 |  E    S S  S  S  S  S       S   S  S   S  S      S  S S
G|-16------------------------------------------------------|
D|-16--------------10h12----------12-----12--------12----0-|
A|---------------------------------------------------------|
E|-------0-9-10--x------------12-----11-----10---------0---|
B|---------------------------------------------------------|

    |-----6------|                               |---3---|
    S S  S S S   S  S S  S  S  S  S  S  S  S  S  S S     S
e|--9p7---------------7------------------------------------|
B|------10-9p7h==9-10---10--9--7-----7---------------------|
G|-------------------------------10----10--7-10--7h9h===10-|
D|---------------------------------------------------------|
A|---------------------------------------------------------|
E|---------------------------------------------------------|
 |
 |  E      S   S    S S  S  S  S  S  S  S  S  S  S    S
G|-16-------------------------19-19-18-18-18-17-17---17----|
D|-16-------------------10h12-19-19-18-18-18-17-17---17----|
A|---------------------------------------------------------|
E|---------0---9---10-x------------------------------------|
B|---------------------------------------------------------|

                       ~~~~~~~~~~~~~~
    +E    a  E    +S   E.        +Q            +E        E
e|-------14s16---(16)----------------------------------------|
B|--------------------15--------(15)----------(15)\----------|
G|-(10)/-----------------------------------------------/14---|
D|-----------------------------------------------------------|
A|-----------------------------------------------------------|
E|-----------------------------------------------------------|
 |
 |   E       S S   S   S   S  S   S   S  S  S   S    S   S S
G|--16-------------------------------------------------------|
D|--16--------------------10h12------12----12-------12-----0-|
A|-----------------------------------------------------------|
E|-----------0-9--10---x---------12-----11-----10--------0---|
B|-----------------------------------------------------------|
 
    S  S  S  S  S  S  S  S  S  S  S  S  S  S  S  S
e|----15-------16----------------------------------|
B|-------------------------15----------------------|
G|-13----14-14----14-14-14----14-14-14-14-14-------|
D|-------------------------------------------14s12-|
A|-------------------------------------------------|
E|-------------------------------------------------|
 |
 |  E     S  S  S  S  S  S  S  S  S  S  S  S  S  S
G|-16----------------------19-19-18-18-18-17-17-17-|
D|-16----------------10h12-19-19-18-18-18-17-17-17-|
A|-------------------------------------------------|
E|--------0--9-10--x-------------------------------|
B|-------------------------------------------------|
 
    S  S  S  S  S  S  S  S  S  S  S  S  +S   S  e
e|--------------------------------------------------|
B|-------------------------------16---------17------|
G|-------12-12-14-14-14-12S14-14----14-(14)----14---|
D|-12h14--------------------------------------------|
A|--------------------------------------------------|
E|--------------------------------------------------|
 |
 |  E     S  S  S  S  S  S  S  S  S  S   S   S  S S
G|-16-----------------------------------------------|
D|-16----------------10h12----12----12------12----0-|
A|--------------------------------------------------|
E|--------0--9-10--x-------12----11-----10------0---|
B|--------------------------------------------------|
 
    S  S  S  S  S  S  S  S  S  S  S  S  S  S  S  S
e|----------------------------20-------20-------20-|
B|----------21-------19----------19-19----19-19----|
G|-18-18-18----18-18----18-18----------------------|
D|-------------------------------------------------|
A|-------------------------------------------------|
E|-------------------------------------------------|
 |
 |  S  S  S  S  E     S  S  S  S  E     S  S  e
G|-16-16-15-14-------14-14-13-12-------12-12-11----|
D|-16-16-15-14-------14-14-13-12-------12-12-11----|
A|-------------------------------------------------|
E|-------------------------------------------------|
B|-------------------------------------------------|

                       ~~~~~~~~~~                       TP     TP
    E.       S  +E     E    +E.       +S   S  S  E      Q      H.
e|----------20-(20)----------------------------------|------------------------------------------|
B|-19b21==============19---(19)r-----(19)S14-14------|--------15--------------------------------|
G|----------------------------------------------14---|-16-----16--------------------------------|
D|---------------------------------------------------|------------------------------------------|
A|---------------------------------------------------|------------------------------------------|
E|---------------------------------------------------|------------------------------------------|
 |
 |  E     S  S   S  S  S S   S   S S   S   S  S  S S    E S S  S  S S S S  S  S  S  S  S  S  S
G|--9------------------------------------------------|--9-----------------12-12-12-11-11-10-10--|
D|--9------------------3h5-------5-----5------5----0-|--9-----------3h5---12-12-12-11-11-10-10--|
A|---------------------------------------------------|------------------------------------------|
E|--------0--3---3--x--------5-----4-------3-----0---|----0-3--3--x-----------------------------|
B|---------------------------------------------------|------------------------------------------|

            \0.5____________________/    \1/                \0.5/              \0.5/
    Q      +Q            +Q         E    E        +E   E    E.         S  +S   E        S  E  E
e|---------------------------------------------|----------------------12-(12)h15s======17h18s19-|
B|-15-----(15)----------(15)-------------------|------12h==15-----------------------------------|
G|-16-----(16)----------(16)-------12h==14-----|-(14)-------------------------------------------|
D|---------------------------------------------|------------------------------------------------|
A|---------------------------------------------|------------------------------------------------|
E|---------------------------------------------|------------------------------------------------|
 |
 |  E S S   S     S S S   S  S S S  S S  S   S     E   S S  S     S S  S   E         E     E  E
G|--9------------------------------------------|---9--------------------------------------------|
D|--9---------------3h5------5---5----5------0-|---9----------------3h=5------------------------|
A|---------------------------------------------|------------------------------------------------|
E|----0-3---3-----x-------5----4----3----0-----|-------0-3--3-----x---------------------------0-|
B|---------------------------------------------|---------------------------0---------2-----3----|

        \0.5/
                          ~~~~~~~
    +E   E        E.      S  +E     S  S  S  S  S  S
e|-(19)p18p======15-------------------------------------|
B|-----------------------18-(18)---15p14h15h17-17p15p===|
G|------------------------------------------------------|
D|------------------------------------------------------|
A|------------------------------------------------------|
E|------------------------------------------------------|
 |
 |   E   S     S  S  S S  S   S  S  S  S  S  S  S  S
G|---9--------------------------------------------------|
D|---9-----------------3h=5------5-----5-----5-----0----|
A|------------------------------------------------------|
E|-------0-----3--3--x--------5-----4-----3-----0-------|
B|------------------------------------------------------|

          |---3---|
    S  S  S  S    S  S  S  S  S  S  S  S  S  S  S  S  S
e|------------------------------------------------------|
B|-14----14---------------------------------14----------|
G|----15----15p==14s12h13p12----------------14-------12-|
D|---------------------------14-12-14-14p12----12-------|
A|------------------------------------------------14----|
E|------------------------------------------------------|
 |
 |  E     S    S     S  S  S  S  S  S  S  S  S  S  S  S
G|--9------------------------------12-12-12-11-11-10-10-|
D|--9----------------------3h=5----12-12-12-11-11-10-10-|
A|------------------------------------------------------|
E|--------0----3-----3--x-------------------------------|
B|------------------------------------------------------|
 
     E  E    E    S  S  S  S  S  S  S  S  S  S
e|----------------------------------------------|
B|----------------------------------------------|
G|---------------------------------12-----------|
D|---------------------------12h15----15-15-15--|
A|-/11------13---------12h14--------------------|
E|-----12--------12h14--------------------------|
 |
 |   E  S S  S S  S  S  S  S  S  S  S  S  S  S
G|---9------------------------------------------|
D|---9------------3h=5-----5-----5-----5-----0--|
A|----------------------------------------------|
E|------0-3--3-x--------5-----4-----3-----0-----|
B|----------------------------------------------|
 
    a  S E    a  S E    a  e   S  a  S E    E        +E
e|-----------------------------------------17b18----(17)\-|
B|---------------------15s18------------------------------|
G|-12s13-----13s14---------------12s14--------------------|
D|--------------------------------------------------------|
A|--------------------------------------------------------|
E|--------------------------------------------------------|
 |
 |     S S S     S S S     S S S     S S S  S     S   E
G|-----9-x-x----10-x-x----12-x-x----13-x-x-15----15--16---|
D|-----9-x-x----10-x-x----12-x-x----13-x-x-15----15--16---|
A|-----7-x-x-----8-x-x----10-x-x----11-x-x-13----13--14---|
E|--------------------------------------------------------|
B|--------------------------------------------------------|

 [Bass Solo]
   W
e|-----------------------------------------------|
B|-----------------------------------------------|
G|-----------------------------------------------|
D|-----------------------------------------------|
A|-----------------------------------------------|
E|-----------------------------------------------|
 |
 | |----6----| |----6----| |----6----| |-3-|
 | S S S S S S S S S S S S S S S S S S S S S E
G|-----------------------------------------------|
D|-----------------------------------------------|
A|-------7-----------7-----------7-----------7---|
E|-----7---7-------7---7-------7---7-------7-----|
B|-0h5-------5-0h5-------5-0h5-------5-0h5-------|

   (Gtr 2)
     E   E   E   E   E E E E   S S S S  E  E S e S  E  E
G|-----h21-----h23-----------|---x-x-x-15s20---x-x-15s20-|
D|---------h21---------------|---x-x-x-14s19---x-x-14s19-|
A|-----------------h18-------|---------------------------|
E|-/12-----------------------|---------------------------|
B|---------------------8S5-3-|-0-------------0-----------|

                       (B5)
   S S S S E E Q  Q    E S S S S S S S S E E S S   E S S S S S S S S E E S S
G|-x-x-x-x-x---------|-4-------------------------|-4--------------------------|
D|-------------------|-4-------------------------|-4--------------------------|
A|-------------------|-----------3h5---5---5-----|-----------3h5---5---5------|
E|-------------------|---------------------------|----------------------------|
B|-----------2s1s=0--|---0-3-3-x-----3---3---0-0-|---0-3-3-x-----3---3---0-0--|

   E S S S S S S S S E E S S   E E E E E E E E
G|-4-----------------------2-|-----------------|
D|-4-----------------------2-|-----------------|
A|-----------3h5---5---5-----|-----------------|
E|---------------------------|---------0-2-3-4-|
B|---0-3-3-x-----3---3---0---|-0-2-3-4---------|

[Chorus]
  E S S S S S S S S E E S S   E S S S S S S S S E E S S
|-9-------------------------|-9-------------------------|
|-9-------------------------|-9-------------------------|
|-----------3h5---5---5-----|-----------3h5---5---5-----|
|---------------------------|---------------------------|
|---0-3-3-x-----3---3---0-0-|---0-3-3-x-----3---3---0-0-|

  E S S S S S S S S E E S S   E S S S S S S H
|-9-------------------------|-9------------------|
|-9-------------------------|-9------------------|
|-----------3h5---5---5-----|-----------3-5------|
|---------------------------|--------------------|
|---0-3-3-x-----3---3---0-0-|---0-3-3-x----------|

  W          W
G|----------|------|
D|----------|------|
A|----------|------|
E|----------|------|
B|----------|------|

  W          W
G|----------|------|
D|----------|------|
A|----------|------|
E|----------|------|
B|----------|------|

  W          W
G|----------|------|
D|----------|------|
A|----------|------|
E|----------|------|
B|----------|------|

   W          Q  E S S Q  E  E
G|----------|-------------------|
D|----------|-------------------|
A|----------|-------------------|
E|----------|------0-0----------|
B|----------|------0-0------10\-|
 
   (Gtr 1)
    Q         E      S S +S  S S S E    E
e|-12--------12------x----------------------|
B|-15b17-----15b17---x-5-(5)S6-6-6-8S==15---|
G|------------------------------------------|
D|------------------------------------------|
A|------------------------------------------|
E|------------------------------------------|
 |
 | (Gtr 2)
 |  E    S S  S    S S S  S  S S S S S  S S
G|--9---------------------------------------|
D|--9----------------3h5-----5---5---5----0-|
A|------------------------------------------|
E|-------0-3--3----x------5----4---3----0---|
B|------------------------------------------|
 
    Q         E      S S +S  S S S E    E
e|-12--------12------x----------------------|
B|-15b17-----15b17---x-5-(5)S6-6-6-8S==15---|
G|------------------------------------------|
D|------------------------------------------|
A|------------------------------------------|
E|------------------------------------------|
 |
 |  E    S S  S    S S S  S  S S S S S  S S
G|--9---------------------------------------|
D|--9----------------3h5-----5---5---5----0-|
A|------------------------------------------|
E|-------0-3--3----x------5----4---3----0---|
B|------------------------------------------|
 
    Q         E      S S +S  S S S S S E
e|-12--------12------x---------------------|
B|-15b17-----15b17---x-5-(5)S6-6-6-7-7-8S==|
G|-----------------------------------------|
D|-----------------------------------------|
A|-----------------------------------------|
E|-----------------------------------------|
 |
 |  E    S S  S    S S S  S  S S S S S S S
G|--9--------------------------------------|
D|--9----------------3h5-----5---5---5---0-|
A|-----------------------------------------|
E|-------0-3--3----x------5----4---3---0---|
B|-----------------------------------------|

                        \3.5________/
    E     E     E    E  Q          +E    +E
e|-12----12----12----------------------------|
B|-15b17-15b17-15b17---15---------(15)--(15)-|
G|----------------------0----------(0)---(0)-|
D|-------------------------------------------|
A|-------------------------------------------|
E|-------------------------------------------|
 |
 |  E     E     E    E  E     S S   S S   E
G|-------------------------------------------|
D|----------------------------------0h2---3--|
A|----------------------------0-2------------|
E|-------------------0--3--------------------|
B|--2-----3-----4----------------------------|

 [Out-Chorus]
   E    S S E   S S +S  S S S S S S S   E   S S E   S S +S  S S S S S S S
e|------------------------------------|-----------------------------------|
B|-5----5-5-5---5-5-(5)-5-------------|-5---5-5-5---5-5-(5)-5---5---6-----|
G|-7b9====================4-4-5-5-6-7-|-7b9-------------------4---5---5-6-|
D|------------------------------------|-----------------------------------|
A|------------------------------------|-----------------------------------|
E|------------------------------------|-----------------------------------|
 |
 | E    S S S S S S  S  S S S S S S S   E   S S S S S S  S  S S S S S S S
G|-9----------------------------------|-9---------------------------------|
D|-9------------3h5-----5---5---5---0-|-9-----------3h5-----5---5---5---0-|
A|------------------------------------|-----------------------------------|
E|------0-3-3-x------5----4---3---0---|-----0-3-3-x------5----4---3---0---|
B|------------------------------------|-----------------------------------|
 
   E    S S E   S S +S  S S S S S S S   E S S E   S S H
e|------------------------------------|-------------0------|
B|-5----5-5-5---5-5-(5)-----5---6---7-|-5-5-5-5---5-0------|
G|-7b9==================4-4---5---6---|-7------------------|
D|------------------------------------|--------------------|
A|------------------------------------|--------------------|
E|------------------------------------|--------------------|
 |
 | E    S S S S S S  S  S S S S S S S   E S S S S S S H
G|-9----------------------------------|-9------------------|
D|-9------------3h5-----5---5---5---0-|-9---------3-5------|
A|------------------------------------|--------------------|
E|------0-3-3-x------5----4---3---0---|---0-3-3-x----------|
B|------------------------------------|--------------------|
 
   E    S S E   S S +S  S S S S S S S   E   S S E   S S +S   S S  S  S S  S  S
e|------------------------------------|----------------------------------------|
B|-5----5-5-5---5-5-(5)-5-------------|-5---5-5-5---5-5-(5)--5----5----6-------|
G|-7b9====================4-4-5-5-6-7-|-7b9--------------------4-----5----5--6-|
D|------------------------------------|----------------------------------------|
A|------------------------------------|----------------------------------------|
E|------------------------------------|----------------------------------------|
 |
 | E    S S S S S S  S  S S S S S S S   E   S S S S S S  S   S S  S  e    S  S
G|-9----------------------------------|-9-------------------12---12-11---10-10-|
D|-9------------3h5-----5---5---5---0-|-9-----------3h5-----10---10--9----8--8-|
A|------------------------------------|----------------------------------------|
E|------0-3-3-x------5----4---3---0---|-----0-3-3-x----------------------------|
B|------------------------------------|----------------------------------------|
 
   E    S S E   S S +S  S S S S S S S   E S S E   S S H
e|------------------------------------|-------------0------|
B|-5----5-5-5---5-5-(5)-----5---6---7-|-5-5-5-5---5-0------|
G|-7b9==================4-4---5---6---|-7------------------|
D|------------------------------------|--------------------|
A|------------------------------------|--------------------|
E|------------------------------------|--------------------|
 |
 | E    S S S S S S  S  S S S S S S S   E S S S S S S H
G|-9----------------------------------|-9------------------|
D|-7------------3h5-----5---5---5---0-|-9---------3-5------|
A|------------------------------------|--------------------|
E|------0-3-3-x------5----4---3---0---|---0-3-3-x----------|
B|------------------------------------|--------------------|
 
   E    S S E   S S +S  S S S S S S S   E   S S E   S S +S  S S S  S  S S S
e|------------------------------------|-------------------------------------|
B|-5----5-5-5---5-5-(5)-5-------------|-5---5-5-5---5-5-(5)-5---5-----6-----|
G|-7b9====================4-4-5-5-6-7-|-7b9-------------------4----5----5-6-|
D|------------------------------------|-------------------------------------|
A|------------------------------------|-------------------------------------|
E|------------------------------------|-------------------------------------|
 |
 | E    S S S S S S  S  S S S S S S S   E   S S S S S S  S  S S S +S  S S S
G|-9----------------------------------|-9-----------------------------------|
D|-9------------3h5-----5---5---5---0-|-9-----------3h5---------------------|
A|------------------------------------|-------------------------------------|
E|------0-3-3-x------5----4---3---0---|-----0-3-3-x-------------0-(0)-3-3-3-|
B|------------------------------------|------------------0--0-3-------------|
 
   E    S S E   S S +S  S S S S S S S   E S S E   S S H      W
e|------------------------------------|-------------0------|------*|
B|-5----5-5-5---5-5-(5)-----5---6---7-|-5-5-5-5---5-0------|------*|
G|-7b9==================4-4---5---6---|-7------------------|------*|
D|------------------------------------|--------------------|------*|
A|------------------------------------|--------------------|------*|
E|------------------------------------|--------------------|------*|
 |
 | E    S S S S S S  E    E   E   E     E S S S S S S H      W
G|------------------------------------|-9------------------|------*|
D|--------------3h5-------------------|-9---------3-5------|------*|
A|------------------------------------|--------------------|------*|
E|------0-3-3-x-------------------0---|---0-3-3-x----------|------*|
B|-0-----------------0----2---3-------|--------------------|------*|


************************************

| b    Bend
| \    Slide down
| /    Slide up
| h    Hammer-on
| x    Dead note
| ~    Vibrato
| p    Pull-off
| (n)  Ghost note
| pb   Pre-bend
| tr   Trill
| [n]  Artificial harmonic (Pinch harmonic)
| *    Natural harmonic

************************************
Suggest correction
comments
print report bad tab
2 comments total.
0 reply
madbass 641 Jan 18, 2007 11:44 AM

Excellent tab. I love how you put the guitar AND bass on this one. Thanks for your hard work!

0 reply
\eggxnog/ 10 Aug 17, 2007 03:50 PM

what kinda guitar does this guy play??? it sounds nice

guest
You may want to rate the tab now too:
select rating
Wanna post a correction for this tab? Suggest correction