Oops, an error
Loading. Please wait.

Tommy The Cat bass

version 2
version 2

Whole song

by Primus
5,959 views 1 this week
no commentswrite comment
1 2 3 4 5
x 4
add to favorites
×
Save as Personal and add changes to this tab that will be seen only by you. Learn more ›
×
You can save this tab as Personal to edit and correct it or add notes. All changes will be seen only by you. Learn more »
launch autoscroll
font size
0
reset
guitar tuner
backing track
0:00
0:00
edit
Autoscroll
slow
fast
+/-
esc
set tempo
stop
Author
Difficulty
G|--------------------------------|--------------------------------|
D|--------------------------------|--------------------------------|
A|--------------------------------|--------------------------------|
E|--------------------------------|---------1/--(/3/)----(/10\)----|
 
G|-4------------------------------|-4------------------------------| 
D|-4----------3h5---5---5---5---0-|-4----------3h5---5---5---5---0-|
A|--------------------------------|--------------------------------| 
E|----0-3-3-x-----5---4---3---0---|----0-3-3-x-----5---4---3---0---| 
   
G|-4------------------------------|-4----------------------3-------|
D|-4----------3h5---5---5---5---0-|-4----------3h5--10h12----------|
A|--------------------------------|--------------------------------|
E|----0-3-3-x-----5---4---3---0---|----0-3-3-x-----------------3\--| 

G|-4------------------------------|-4------------------------------|
D|-4----------3h5---5---5---5---0-|-4----------3h5---5---5---5---0-|
A|--------------------------------|--------------------------------|
E|----0-3-3-x-----5---4---3---0---|----0-3-3-x-----5---4---3---0---|
   
G|-4------------------------------|-4------------------------------|
D|-4----------3h5---5---5---5---0-|-4----------3h5---5---5---5---0-|
A|--------------------------------|--------------------------------|
E|----0-3-3-x-----5---4---3---0---|----0-3-3-x-----5---4---3---0---| x3
   

G|-4------------------------------|--------------------------------|
D|-4------------------------------|--------------------------------|
A|--------------------------------|--------------------------------|
E|--------------------------------|--------------------------------|
   
 
G|--------------------------------|--------------------------------|
D|--------------------------------|--------------------------------|
A|--------------------------------|--------------------------------|
E|0/------------------------------|-19-19\-15\14\-12\11\-8\7\-5\-3-|

G|-4------------------------------|-4------------------------------|
D|-4----------3h5---5---5---5---0-|-4----------3h5---5---5---5---0-|
A|--------------------------------|--------------------------------|
E|----0-3-3-x-----5---4---3---0---|----0-3-3-x-----5---4---3---0---|
   
G|-4------------------------------|-4------------------------------| 
D|-4----------3h5---5---5---5---0-|-4----------3h5-----------------| 
A|--------------------------------|----------------2---4---5-------| 
E|----0-3-3-x-----5---4---3---0---|----0-3-3-x-----------------0---|

G|-4------------------------------|-4------------------------------|
D|-4----------3h5---5---5---5---0-|-4----------3h5---5---5---5---0-|
A|--------------------------------|--------------------------------|
E|----0-3-3-x-----5---4---3---0---|----0-3-3-x-----5---4---3---0---| x7
   
G|-4------------------------------|--------------------------------|
D|-4------------------------------|--------------------------------|
A|--------------------------------|--------------------------------|
E|--------------------------------|--------------------------------|

G|-/7----13------------------0----|-4------------------------------|
D|-------------\10/15--x-14----0--|-4----------3h5---5---5---5---0-|
A|--------------------------------|--------------------------------|
E|--------------------------------|----0-3-3-x-----5---4---3---0---|
    
G|-4------------------------------|-4------------------------------|
D|-4----------3h5---5---5---5---0-|-4----------3h5---5---5---5---0-|
A|--------------------------------|--------------------------------|
E|----0-3-3-x-----5---4---3---0---|----0-3-3-x-----5---4---3---0---|
   
G|-4------------------------------|-4------------------------------|
D|-4----------3-5-----------------|-4----------3h5---5---5---5---0-|
A|--------------------------------|--------------------------------|
E|----0-3-3-x---------------------|----0-3-3-x-----5---4---3---0---|
   
G!-4------------------------------!-4------------------------------
D|-4----------3h5---5---5---5---0-|-4----------3h5---5---5---5---0-|
A|--------------------------------|--------------------------------|
E|----0-3-3-x-----5---4---3---0---|----0-3-3-x-----5---4---3---0---|
   
G|-4----------------7-7-7-6-6-5-5-|-4------------------------------|
D|-4----------3h5---5-5-5-4-4-3-3-|-4----------3h5---5---5---5---0-|
A|--------------------------------|--------------------------------|
E|----0-3-3-x---------------------|----0-3-3-x-----5---4---3---0---|
   
G|-4------------------------------|-4------------------------------|
D|-4----------3h5---5---5---5---0-|-4----------3h5---5---5---5---0-|
A|--------------------------------|--------------------------------|
E|----0-3-3-x-----5---4---3---0---|----0-3-3-x-----5---4---3---0---| x5
   
G|-4------------------------------| 
D|-4----------5/--/(19)---(19\)---| 
A|--------------------------------| 
E|----0-3-3-x---------------------| 
        
G|-11------------------------------|-11--------------14-14-13-13-13-12-12-12-|
D|-9-----------10h12--12--12--12-0-|-9----------10h12------------------------|
A|----0-9-10-x---------------------|----0-9-10-x-----------------------------|
E|------------------12--11--10--0--|-----------------------------------------|
    
G|-11------------------------------|-11--------------14-14-13-13-13-12-12-12-|
D|-9-----------10h12--12--12--12-0-|-9----------10h12------------------------|
A|----0-9-10-x---------------------|----0-9-10-x-----------------------------|
E|------------------12--11--10--0--|-----------------------------------------|
    
G|-11------------------------------|-11--------------14-14-13-13-13-12-12-12-|
D|-9-----------10h12--12--12--12-0-|-9----------10h12------------------------|
A|----0-9-10-x---------------------|----0-9-10-x-----------------------------|
E|------------------12--11--10--0--|-----------------------------------------|
    
G|-11------------------------------|--11--11--10--9---9--9--8--7---7--7--6---|
D|-9-----------10h12--12--12--12-0-|--9---9---8---7---7--7--6--5---5--5--4---|
A|----0-9-10-x---------------------|-----------------------------------------|
E|------------------12--11--10--0--|-----------------------------------------|
                          
G|-4------------------------------|-4----------------7-7-7-6-6-5-5-|
D|-4----------3h5---5---5---5---0-|-4----------3h5---5-5-5-4-4-3-3-|
A|--------------------------------|--------------------------------|
E|----0-3-3-x-----5---4---3---0---|----0-3-3-x---------------------|
   
G|-4------------------------------|-4------------------------------|
D|-4----------3h5---5---5---5---0-|-4----------3h5-----------------| 
A|--------------------------------|----------------------------0---| 
E|----0-3-3-x-----5---4---3---0---|----0-3-3-x-----0---2---3-------|
  
G|-4------------------------------|-4----------------7-7-7-6-6-5-5-|
D|-4----------3h5---5---5---5---0-|-4----------3h5---5-5-5-4-4-3-3-|
A|--------------------------------|--------------------------------|
E|----0-3-3-x-----5---4---3---0---|----0-3-3-x---------------------|

B|-4------------------------------|-4-x-x-5-x-x-7-x-x-8-x-x-9-x-11-|
D|-4----------3h5---5---5---5---0-|-2-x-x-3-x-x-5-x-x-6-x-x-7-x--9-|
A|--------------------------------|--------------------------------| 
E|----0-3-3-x-----5---4---3---0---|--------------------------------|
    
G|--------------------------------|---------16---------------------|
D|--------------------------------|-----14------16--13-------------|
A|-----7-------7-------7-------7--|--------------------------------|
E|--0-7-7-0---7-7-----7-7-----7---|-/12-----------------3\--0\-----|
  
G|---x-x-x--9/14-----x--x--9/14---|-x-x-x-x-x----------------------|
D|----------7/12-----------7/12---|--------------------------------|
A|--------------------------------|--------------------------------|
E|--------------------------------|-------------4\-----------------|

G|-4------------------------------|-4------------------------------|
D|-4------------------------------|-4------------------------------|
A|----2-5-5---3h5-5-5-5---5-------|----2-5-5---3h5-5-5--5--5--2--2-|
E|--------------------------------|--------------------------------|

G|-4----------------------------2-|--------------------------------|
D|-4----------------------------2-|--------------------------------|
A|------5-5---3h5---5-----5-------|-2--4----5---6------------------|
E|--------------------------------|-----------------0---2---3---4--|
 
G|-4------------------------------|-4------------------------------|
D|-4------------------------------|-4------------------------------|
A|----2-5-5---3h5---5-----5-------|----2-3-3---3h5---5-----5--2--2-|
E|--------------------------------|--------------------------------|

G|-4------------------------------|-4------------------------------|
D|-4------------------------------|-4------------------------------|
A|----2-5-5---3h5-5-5--5--5-------|---2-5-5-5---3-5----------------|
E|--------------------------------|--------------------------------|
          
G|--------------------------------|--------------------------------| 
D|--------------------------------|--------------------------------| 
A|--------------------------------|-----------2--2-----------------| 
E|--------------------------------|-----------0--0-----------5-----| 
                                    
G|-4------------------------------|-4------------------------------|
D|-4----------3h5---5---5---5---0-|-4----------3h5---5---5---5---0-|
A|--------------------------------|--------------------------------|
E|----0-3-3-x-----5---4---3---0---|----0-3-3-x-----5---4---3---0---|

G|-4------------------------------|--------------------------------|
D|-4----------3h5---5---5---5---0-|------------------------0h2--3--|
A|--------------------------------|-4--5----6--------0--2----------|
E|----0-3-3-x-----5---4---3---0---|------------0--3----------------|

G|-4------------------------------|-4------------------------------|
D|-4----------3h5---5---5---5---0-|-4----------3h5---5---5---5---0-|
A|--------------------------------|--------------------------------|
E|----0-3-3-x-----5---4---3---0---|----0-3-3-x-----5---4---3---0---|
  
G|-4------------------------------|-4------------------------------|
D|-4----------3h5---5---5---5---0-|-4----------3-5-----------------|
A|--------------------------------|--------------------------------|
E|----0-3-3-x-----5---4---3---0---|----0-3-3-x---------------------|

G|-4------------------------------|-4---------------5--5--4---3--3-|
D|-4----------3h5---5---5---5---0-|-4----------3h5--5--5--4---3--3-|
A|--------------------------------|--------------------------------|
E|----0-3-3-x-----5---4---3---0---|----0-3-3-x---------------------|
   
G|-4------------------------------|-4------------------------------|
D|-4----------3h5---5---5---5---0-|-4----------3-5-----------------|
A|--------------------------------|--------------------------------|
E|------0-3-x-----5---4---3---0---|----0-3-3-x---------------------|

G|-4------------------------------|-4------------------------------|
D|-4----------3h5---5---5---5---0-|-4----------3h5-----------------|
A|--------------------------------|----------------2-2-5-----------|
E|----0-3-3-x-----5---4---3---0---|----0-3-3-x-----------0---3-3-3-|

G|-4------------------------------|-4------------------------------|
D|-4----------3h5-----------------|-4----------3-5-----------------|
A|--------------------------------|--------------------------------|
E|----0-3-3-x-----------------0---|----0-3-3-x---------------------|

            
            
Suggest correction
Creating personal tab
Creating personal tab
You can edit any tab online and save it as your Personal.

You can edit, replace or remove any tab part or add personal notes – all changes will be seen only by you.

Personal tabs can be accessed anytime from any device, even offline.
Learn more »
comments
print report bad tab
guest
You may want to rate the tab now too:
select rating
Wanna post a correction for this tab? Suggest correction