Oops, an error
Loading. Please wait.

Tommy The Cat Bass

version 3
version 3
by Primus
63,285 views 75 this week
15 commentsread comments
1 2 3 4 5
x 18
add to favorites
×
Save as Personal and add changes to this tab that will be seen only by you. Learn more ›
×
You can save this tab as Personal to edit and correct it or add notes. All changes will be seen only by you. Learn more »
save as personal
new!
launch autoscroll
font size
0
reset
guitar tuner
backing track
0:00
0:00
Autoscroll
slow
fast
+/-
esc
set tempo
stop
Difficulty
intermediate
[Intro]

G|--------------|
D|--------------|
A|--------------|
E|---1/3/10-----|

                                    3x
G||--2h4----------------------------||-2h4------------------15-------|
D||o-4---------3h5---5-----5-----0-o||-4---------3h5--10-12----------|
A||o-------------------------------o||-------------------------3\----|
E||------0-3-x-----x---x-x---x-x----||-----0-3-x---------------------|


                                    8x
G||--2h4----------------------------||-4----|
D||o-4---------3h5---5-----5-----0-o||-2----|
A||o-------------------------------o||------|
E||------0-3-x-----x---x-x---x-x----||------|


[Verse 1]

G|----------------|--------------------------------------------|
D|----------------|--------------------------------------------|
A|----------------|--------------------------------------------|
E|----------------|-2/----19--19\17\15\14\12\11\10\8\7\5\3-----|


G|-2h4---------------------------|
D|-4---------3h5---5-----5-----0-|
A|-------------------------------|
E|-----0-3-x-----x---x-x---x-x---|


                                    2x
G||--2h4----------------------------||-2h4---------------------|
D||o-4---------3h5---5-------------o||-4---------3h5-----------|
A||o-------------------------------o||-------------------------|
E||------0-3-x-----x---x-x-x-x-x-x--||-----0-3-x-----x-0-2-3-4-|


                                   12x
G||--2h4----------------------------||-|
D||o-4---------3h5---5-------------o||-|
A||o-------------------------------o||-|
E||------0-3-x-----x---x-x-x-x-x-x--||-|


                                    2x
G||--2h4----------------------------||-2---|
D||o-4---------3h5---5-----5-----0-o||-4---|
A||o-------------------------------o||-----|
E||------0-3-x-----x---x-x---x-x----||-----|


[Verse 2]

G|------------|-/19----------------------------------|
D|------------|------18--10/15-x-14-x----------------|
A|------------|------------------------12------13----|
E|------------|--------------------------------------|


[Chorus]

                         3x
G||--2h4----------------------------||-2h4---------------|
D||o-4---------3h5---5-----5-----0-o||-4---------3h5-----|
A||o-------------------------------o||-------------------|
E||------0-3-x-----x---x-x---x-x----||-----0-3-x---------|



[Guitar Solo]

G|-2h4---------------------------|-2h4------------------------------|
D|-4---------3h5---5-----5-----0-|-4---------3h5---5-----5-----0----|
A|-------------------------------|----------------------------------|
E|-----0-3-x-----x---x-x---x-x---|-----0-3-x-----x---x-x---x-x------|


G|-2h4---------------------------|-2h4-------------7-7-7-6-6-5-5----|
D|-4---------3h5---5-----5-----0-|-4---------3h5--------------------|
A|-------------------------------|----------------------------------|
E|-----0-3-x-----x---x-x---x-x---|-----0-3-x-----x------------------|


G|-2h4---------------------------|-2h4------------------------------|
D|-4---------3h5---5-----5-----0-|-4---------3h5---5-----5-----0----|
A|-------------------------------|----------------------------------|
E|-----0-3-x-----x---x-x---x-x---|-----0-3-x-----x---x-x---x-x------|


G|-2h4---------------------------|-2h4------------------------|
D|-4---------3h5---5-----5-----0-|-4---------3h5--------------|
A|-------------------------------|----------------------------|
E|-----0-3-x-----x---x-x---x-x---|-----0-3-x-----x-0-2-3-4----|


G|-2h4---------------------------|-2h4------------------------------|
D|-4---------3h5---5-----5-----0-|-4---------3h5---5-----5-----0----|
A|-------------------------------|----------------------------------|
E|-----0-3-x-----x---x-x---x-x---|-----0-3-x-----x---x-x---x-x------|


G|-2h4---------------------------|-2h4------------------------------|
D|-4---------3h5---5-----5-----0-|-4---------3h5---5-----5-----0----|
A|-------------------------------|----------------------------------|
E|-----0-3-x-----x---x-x---x-x---|-----0-3-x-----x---x-x---x-x------|


G|-2h4---------------------------|-2h4------------------------------|
D|-4---------3h5---5-----5-----0-|-4---------3h5---5-----5-----0----|
A|-------------------------------|----------------------------------|
E|-----0-3-x-----x---x-x---x-x---|-----0-3-x-----x---x-x---x-x------|


G|-2h4---------------------------|-2h4-----------------------|
D|-4---------3h5---5-----5-----0-|-4---------5//19-----------|
A|-------------------------------|---------------------------|
E|-----0-3-x-----x---x-x---x-x---|-----0-3-x-----------------|


G|-2h4-------5h7-------------------|-2h4-------5h7--14-14-13-13-13-12-12-12-|
D|-4---------------12-----12-----0-|-4--------------------------------------|
A|---------------------------------|----------------------------------------|
E|-----0-3-x-----x----x-x----x-x---|-----0-3-x------------------------------|


G|-2h4-------5h7-------------------|-2h4-------5h7--14-14-13-13-13-12-12-12-|
D|-4---------------12-----12-----0-|-4--------------------------------------|
A|---------------------------------|----------------------------------------|
E|-----0-3-x-----x----x-x----x-x---|-----0-3-x------------------------------|


G|-2h4-------5h7-------------------|-2h4-------5h7-14-14-13-13-13-12-12-12--|
D|-4---------------12-----12-----0-|-4--------------------------------------|
A|---------------------------------|----------------------------------------|
E|-----0-3-x-----x----x-x----x-x---|-----0-3-x------------------------------|


G|-2h4-------5h7-------------------|-11-11-10-9-----9-9-8-7-----7-7-6----|
D|-4---------------12-----12-----0-|-------------------------------------|
A|---------------------------------|-------------------------------------|
E|-----0-3-x-----x----x-x----x-x---|------------x-x---------x-x----------|


G|-2h4---------------------------|-2h4-------------7-7-7-6-6-5-5----|
D|-4---------3h5---5-----5-----0-|-4---------3h5--------------------|
A|-------------------------------|----------------------------------|
E|-----0-3-x-----x---x-x---x-x---|-----0-3-x-----x------------------|


G|-2h4---------------------------|-2h4------------------------|
D|-4---------3h5---5-----5-----0-|-4---------3h5--------------|
A|-------------------------------|----------------------------|
E|-----0-3-x-----x---x-x---x-x---|-----0-3-x-----x-0-2-3-5----|


G|-2h4---------------------------|-2h4-------------7-7-7-6-6-5-5----|
D|-4---------3h5---5-----5-----0-|-4---------3h5--------------------|
A|-------------------------------|----------------------------------|
E|-----0-3-x-----x---x-x---x-x---|-----0-3-x-----x------------------|


G|-2h4---------------------------|-4-x-x-5-x-x-7-x-x-8-x-x-10-x-11----|
D|-4---------3h5---5-----5-----0-|-2-x-x-3-x-x-5-x-x-6-x-x--8-x--9----|
A|-------------------------------|------------------------------------|
E|-----0-3-x-----x---x-x---x-x---|------------------------------------|



[Bass Solo]
                               
G|-------------------------------------------------21--16--23-----------|
D|-------7-----------7-----------7-----------7-----------------13-------|
A|-----7---7-------7---7-------7---7-------7----------------------------|
E|-0h7-------7-0h7-------7-0h7-------7-0h7-----/12----------------8\5\3-|


G|-x-x--x-15/20--x-x--x-15/20---------------------------|
D|-x-x--x-14/19--x-x--x-14/19---------------------------|
A|------------------------------------------------------|
E|-----------------------------x-x-x-x-x--0\wb----------|


[Chorus]

                                    3x
G||--2h4----------------------------||--------------------|
D||o-4---------3h5---5-----5-----0-o||--------------------|
A||o-------------------------------o||---------0-2-3-4----|
E||------0-3-x-----x---x-x---x-x----||-0-2-3-4------------|


                                    3x
G||--2h4----------------------------||-2h4--------------|
D||o-4---------3h5---5-----5-----0-o||-4---------3h5----|
A||o-------------------------------o||------------------|
E||------0-3-x-----x---x-x---x-x----||-----0-3-x--------|


G|-----------------|-0-0---------|
D|-----------------|-0-0---------|
A|-----------------|-0-0---------|
E|-----------------|------10\----|



[Outro Chorus]
                                   3x
G||--2h4----------------------------||--------------------|
D||o-4---------3h5---5-----5-----0-o||--------------------|
A||o-------------------------------o||---------0-2-3-4----|
E||------0-3-x-----x---x-x---x-x----||-0-2-3-4------------|


                                    3x
G||--2h4----------------------------||-2h4---------------|
D||o-4---------3h5---5-----5-----0-o||-4---------3h5-----|
A||o-------------------------------o||-------------------|
E||------0-3-x-----x---x-x---x-x----||-----0-3-x---------|


G|-2h4---------------------------|-2h4-------------7-7-6-6-5-5-4----|
D|-4---------3h5---5-----5-----0-|-4---------3h5---5-5-4-4-3-3-2----|
A|-------------------------------|----------------------------------|
E|-----0-3-x-----x---x-x---x-x---|-----0-3-x-----x------------------|


G|-2h4---------------------------|-2h4---------------|
D|-4---------3h5---5-----5-----0-|-4---------3h5-----|
A|-------------------------------|-------------------|
E|-----0-3-x-----x---x-x---x-x---|-----0-3-x---------|


G|-2h4---------------------------|-2h4----------------------|
D|-4---------3h5---5-----5-----0-|-4---------3h5------------|
A|-------------------------------|--------------------------|
E|-----0-3-x-----x---x-x---x-x---|-----0-3-x-----0-2-3-4----|


G|-2h4---------------------------|-2h4---------------|
D|-4---------3h5---5-----5-----0-|-4---------3h5-----|
A|-------------------------------|-------------------|
E|-----0-3-x-----x---x-x---x-x---|-----0-3-x---------|



************************************

| x  Dead note
| h  Hammer-on
| /  Slide up
| \  Slide down
| x  Mute
| wb Whammy bar

************************************
Suggest correction
comments
print report bad tab
15 comments total. Showing first comments.
0 reply
Zachy Boy 279 May 05, 2007 02:50 PM

good job considering he plays it on 6 string

0 reply
HeatHen 10 Jun 16, 2007 09:20 AM

He plays 6-string on the album version but he sumtimes plays it like this, with a 4-string.
Great tab

0 reply
bucketheaddude 10 Aug 07, 2007 08:25 PM

very nice

guest
Wanna post a correction for this tab? Suggest correction