Oops, an error
Loading. Please wait.

Too Many Puppies bass

version 2
version 2

Whole song

Interactive

by Primus
3,148 views 27 this week
1 commentread comment
1 2 3 4 5
1 last vote to show rating
add to favorites
×
Save as Personal and add changes to this tab that will be seen only by you. Learn more ›
×
You can save this tab as Personal to edit and correct it or add notes. All changes will be seen only by you. Learn more »
launch autoscroll
font size
0
reset
guitar tuner
edit
Autoscroll
slow
fast
+/-
esc
set tempo
stop
V = downstroke
^ = upstroke
p = pop

This is the song in it's entirety, enjoy

all the 2’s with * next to them randomly change to 5’s from time to time, so you can 
mix it up however you want to

  V   V ^ V            V   V ^ V            V   V ^ V            V   V ^ V
G-5h6-6-6-7------------5h6-6-6-7------------5h6-6-6-7------------5h6-6-6-7-|
D-5---5-5-5------------5---5-5-5------------5---5-5-5------------5---5-5-5-|
A--------------------------------------------------------------------------|
E--------------------------------------------------------------------------|

  V   V ^ V  V ^ V  V ^ V  V ^  V   V ^ V  V ^ V  V ^ V  V ^
G-5h6-6-6-7--x-x-x--x-x-x--x-x--5h6-6-6-7--x-x-x--x-x-x--x-x-|
D-5---5-5-5--x-x-x--x-x-x--x-x--5---5-5-5--x-x-x--x-x-x--x-x-|
A------------------------------------------------------------|
E------------------------------------------------------------|

  V   V ^ V  V ^ V  V ^ V  V ^  V   V ^ V  V ^ V  V ^ V  V ^
G-5h6-6-6-7--x-x-x--x-x-x--x-x--5h6-6-6-7--x-x-x--x-x-x--x-x------|
D-5---5-5-5--x-x-x--x-x-x--x-x--5---5-5-5--x-x-x--x-x-x--x-x------|
A-----------------------------------------------------------------|
E------------------------------------------------------------12\0-|

  V   V ^ V              V   V ^ V
G-5h6-6-6-7--------------5h6-6-6-7-------------|
D-5---5-5-5--------------5---5-5-5-------------|
A----------------------------------------------|
E------------2-3-2-3-2*-------------2-3-2-3-2*-|

  V   V ^ V              V   V ^ V
G-5h6-6-6-7--------------5h6-6-6-7-------------|
D-5---5-5-5--------------5---5-5-5-------------|
A----------------------------------------------|
E------------2-3-2-3-2*-------------2-3-2-3-2*-|

  V   V ^ V            V   V ^ V            V   V ^ V            V   V ^ V
G-5h6-6-6-7------------5h6-6-6-7------------5h6-6-6-7------------5h6-6-6-7-|
D-5---5-5-5------------5---5-5-5------------5---5-5-5------------5---5-5-5-|
A--------------------------------------------------------------------------|
E--------------------------------------------------------------------------|

  V   V ^ V              V   V ^ V
G-5h6-6-6-7--------------5h6-6-6-7-------------|
D-5---5-5-5--------------5---5-5-5-------------|
A----------------------------------------------|
E------------2-3-2-3-2*-------------2-3-2-3-2*-|

G-5h6-6-6-7--------------5h6-6-6-7-|
D-5---5-5-5--------------5---5-5-5-|
A----------------------------------|
E----------------------------------|

  V   V ^ V              V   V ^ V
G-5h6-6-6-7--------------5h6-6-6-7-------------|
D-5---5-5-5--------------5---5-5-5-------------|
A----------------------------------------------|
E------------2-3-2-3-2*-------------2-3-2-3-2*-|

  V   V ^ V              V   V ^ V
G-5h6-6-6-7--------------5h6-6-6-7-------------|
D-5---5-5-5--------------5---5-5-5-------------|
A----------------------------------------------|
E------------2-3-2-3-2*-------------2-3-2-3-2*-|

  V   V ^ V            V   V ^ V            V   V ^ V            V   V ^ V
G-5h6-6-6-7------------5h6-6-6-7------------5h6-6-6-7------------5h6-6-6-7-|
D-5---5-5-5------------5---5-5-5------------5---5-5-5------------5---5-5-5-|
A--------------------------------------------------------------------------|
E--------------------------------------------------------------------------|

G-5h6-6-6-7--------------5h6-6-6-7-------------|
D-5---5-5-5--------------5---5-5-5-------------|
A----------------------------------------------|
E------------2-3-2-3-2*-------------2-3-2-3-2*-|

  V   V ^ V            V   V ^ V            V   V ^ V            V   V ^ V
G-5h6-6-6-7------------5h6-6-6-7------------5h6-6-6-7------------5h6-6-6-7-|
D-5---5-5-5------------5---5-5-5------------5---5-5-5------------5---5-5-5-|
A--------------------------------------------------------------------------|
E--------------------------------------------------------------------------|

  V ^ V ^ V ^ V ^ V ^ V ^ V ^ V ^ V ^ V ^ V ^ V ^ V ^ V ^ V
G-5-6-x-x-6-7-x-x-8-9-x-x-9-8-x-x-8-7-x-x-7-6-x-x-6-5-x-x-x-|
D-5-6-x-x-6-7-x-x-8-9-x-x-9-8-x-x-8-7-x-x-7-6-x-x-6-5-x-x-x-|
A-----------------------------------------------------------|
E-----------------------------------------------------------|

  V ^ V ^ V ^ V ^ V ^ V ^ V ^ V ^ V ^ V ^ V ^ V ^ V ^ V ^ V
G-5-6-x-x-6-7-x-x-8-9-x-x-9-8-x-x-8-7-x-x-7-6-x-x-6-5-x-x-x-|
D-5-6-x-x-6-7-x-x-8-9-x-x-9-8-x-x-8-7-x-x-7-6-x-x-6-5-x-x-x-|
A-----------------------------------------------------------|
E-----------------------------------------------------------|

  V ^ V ^ V ^ V ^ V ^ V ^ V ^ V ^ V ^ V ^ V ^ V ^ V ^ V ^ V
G-5-6-x-x-6-7-x-x-8-9-x-x-9-8-x-x-8-7-x-x-7-6-x-x-6-5-x-x-x-|
D-5-6-x-x-6-7-x-x-8-9-x-x-9-8-x-x-8-7-x-x-7-6-x-x-6-5-x-x-x-|
A-----------------------------------------------------------|
E-----------------------------------------------------------|

G-5-6-x-x-x--x-x-x--x-x-x--x-x--5-6-x-x-x--x-x-x--x-x-x--x-x-|
D-5-6-x-x-x--x-x-x--x-x-x--x-x--5-6-x-x-x--x-x-x--x-x-x--x-x-|
A------------------------------------------------------------|
E------------------------------------------------------------|

G------|
D------|
A------|
E-0/12-

  V   V ^ V              V   V ^ V
G-5h6-6-6-7--------------5h6-6-6-7-------------|
D-5---5-5-5--------------5---5-5-5-------------|
A----------------------------------------------|
E------------2-3-2-3-2*-------------2-3-2-3-2*-|

  V   V ^ V              V   V ^ V
G-5h6-6-6-7--------------5h6-6-6-7-------------|
D-5---5-5-5--------------5---5-5-5-------------|
A----------------------------------------------|
E------------2-3-2-3-2*-------------2-3-2-3-2*-|

  V   V ^ V            V   V ^ V            V   V ^ V            V   V ^ V
G-5h6-6-6-7------------5h6-6-6-7------------5h6-6-6-7------------5h6-6-6-7-|
D-5---5-5-5------------5---5-5-5------------5---5-5-5------------5---5-5-5-|
A--------------------------------------------------------------------------|
E--------------------------------------------------------------------------|
                                                                                  p

  V   V ^ V              V   V ^ V
G-5h6-6-6-7--------------5h6-6-6-7-------------|
D-5---5-5-5--------------5---5-5-5-------------|
A----------------------------------------------|
E------------2-3-2-3-2*-------------2-3-2-3-2*-|

  V   V ^ V              V   V ^ V
G-5h6-6-6-7--------------5h6-6-6-7-------------|
D-5---5-5-5--------------5---5-5-5-------------|
A----------------------------------------------|
E------------2-3-2-3-2*-------------2-3-2-3-2*-|

  V   V ^ V              V   V ^ V
G-5h6-6-6-7--------------5h6-6-6-7-------------|
D-5---5-5-5--------------5---5-5-5-------------|
A----------------------------------------------|
E------------2-3-2-3-2*-------------2-3-2-3-2*-|

  V   V ^ V              V   V ^ V
G-5h6-6-6-7--------------5h6-6-6-7-------------|
D-5---5-5-5--------------5---5-5-5-------------|
A----------------------------------------------|
E------------2-3-2-3-2*-------------2-3-2-3-2*-|

  V   V ^ V            V   V ^ V            V   V ^ V            V   V ^ V
G-5h6-6-6-7------------5h6-6-6-7------------5h6-6-6-7------------5h6-6-6-7-|
D-5---5-5-5------------5---5-5-5------------5---5-5-5------------5---5-5-5-|
A--------------------------------------------------------------------------|
E--------------------------------------------------------------------------|

  V   V ^ V              V   V ^ V
G-5h6-6-6-7--------------5h6-6-6-7-------------|
D-5---5-5-5--------------5---5-5-5-------------|
A----------------------------------------------|
E------------2-3-2-3-2*-------------2-3-2-3-2*-|

  V   V ^ V              V   V ^ V
G-5h6-6-6-7--------------5h6-6-6-7--------------5h6-6-6-7-|
D-5---5-5-5--------------5---5-5-5--------------5---5-5-5-|
A---------------------------------------------------------|
E------------2-3-2-3-2*-------------2-3-2-3-2*------------|

            
            
Suggest correction
Creating personal tab
Creating personal tab
You can edit any tab online and save it as your Personal.

You can edit, replace or remove any tab part or add personal notes – all changes will be seen only by you.

Personal tabs can be accessed anytime from any device, even offline.
Learn more »
Give kudos to tab author, rate the tab!
1 2 3 4 5
comments
print report bad tab
1 comment total.
0 reply
elimental389 294 Mar 26, 2013 11:43 PM

Good tab man

guest
You may want to rate the tab now too:
select rating
Wanna post a correction for this tab? Suggest correction