Oops, an error
Loading. Please wait.

Welcome To This World Bass

version 1
version 1

Whole song

Interactive

by Primus
8,758 views 9 this week
no commentswrite comment
1 2 3 4 5
x 3
add to favorites
launch autoscroll
font size
0
reset
guitar tuner
×
Best way to learn
"Welcome To This World"
Autoscroll
slow
fast
+/-
esc
set tempo
stop
R - Right Hand Tap
S - Slap
P - Pop
 - Slide down
h - Hammer-On
p - Pull-Off
v - Flemenco Downstroke
x - Mute note
(-3-) - Triplet


Intro: 
C|-4/10--10-10-10-10-9-9-9-9-10-------4/10--10-10-10-10-9-9-9-9-10--|
G|-4/10--10-10-10-10-9-9-9-9-10-------4/10--10-10-10-10-9-9-9-9-10--|
D|------------------------------------------------------------------|
A|------------------------------------------------------------------|
E|------------------------------------------------------------------|
B|------------------------------------------------------------------|
   R R   R  R  R  R  R R R R R        R R   R  R  R  R  R R R R R 

C|-4/10--10-10-10-10-9-9-9-9-10--------|
G|-4/10--10-10-10-10-9-9-9-9-10--------|
D|-------------------------------------|
A|-------------------------------------|
E|-------------------------------------|
B|-------------------------------------|
   R R   R  R  R  R  R R R R R       

C|-10-10-9-9-9-10-10-10-9-9-9-10-10-10-9-9-9-10-10-10-9-9-9-10-10-10-9-9-9-10-10-10|
G|-10-10-9-9-9-10-10-10-9-9-9-10-10-10-9-9-9-10-10-10-9-9-9-10-10-10-9-9-9-10-10-10|
D|---------------------------------------------------------------------------------|
A|---------------------------------------------------------------------------------|
E|---------------------------------------------------------------------------------|
B|---------------------------------------------------------------------------------|
   R  R  R R R R  R  R  R R R R  R  R  R R R R  R  R  R R R R  R  R  R R R R  R  R



Verse 1:
C|-x-xx-xxxx-x--x-xx-xxxx--x-xx-xxxx--x-xx-xxxx--x-xx-xxxx--x-xx-xxxx--|
G|-x-xx-xxxx-x--x-xx-xxxx--x-xx-xxxx--x-xx-xxxx--x-xx-xxxx--x-xx-xxxx--|
D|---------------------------------------------------------------------|
A|---------------------------------------------------------------------|
E|---------------------------------------------------------------------|
B|---------------------------------------------------------------------|
   R RR RRRR R  R RR RRRR  R RR RRRR  R RR RRRR  R RR RRRR  R RR RRRR


 
Chorus: This is a bit tough
C|----------------------------------------------------------|
G|----------------------------------------------------------|
D|-------8----9---8---7---8----9---8---7---8----------10-9--|
A|------------------------------------------------7h8-------|
E|-----6---7-7--6---5---6---7-7--6---5---6---7h9-x----------|
B|-12------------------------------------------------------|
   S   S P S SP S P S P S P S SP S P S P S P S   SP   P  P

C|------------------------------------------------------|
G|------------------------------------------------------|
D|---8----9---8---7---8----9---8---7---8----------10-9--|
A|--------------------------------------------7h8-------|
E|-6---7-7--6---5---6---7-7--6---5---6---7h9-x----------|
B|------------------------------------------------------|
   S P S SP S P S P S P S SP S P S P S P S   SP   P  P



Verse 2:
C|----------------------------------------------------------------|
G|----------------------------------------------------------------|
D|----------------------------------------------------------------|
A|----------------------------------------------------------------|
E|----------------------------------------------------------------|
B|---------------------------------x-x-x-x-x-x-x-x-x-x-x-x-x-x-x--|
                                   S S S S S S S S S S S S S S S  


Chorus:
C|------------------------------------------------------------|
G|------------------------------------------------------------|
D|---------8----9---8---7---8----9---8---7---8----------10-9--|
A|-12-----------------------------------------------7h8-------|
E|-------6---7-7--6---5---6---7-7--6---5---6---7h9-x----------|
B|---12------------------------------------------------------|
   P S   S P S SP S P S P S P S SP S P S P S P S   SP   P  P

C|------------------------------------------------------|
G|------------------------------------------------------|
D|---8----9---8---7---8----9---8---7---8----------10-9--|
A|--------------------------------------------7h8-------|
E|-6---7-7--6---5---6---7-7--6---5---6---7h9-x----------|
B|------------------------------------------------------|
   S P S SP S P S P S P S SP S P S P S P S   SP   P  P


Verse 3:
C|----------------------------------------------------------------|
G|----------------------------------------------------------------|
D|----------------------------------------------------------------|
A|----------------------------------------------------------------|
E|----------------------------------------------------------------|
B|---------------------------------x-x-x-xxx-x-x-x-xxx-x-x-xxx-x--|
                                   S S S SSS S S S SSS S S SSS S 


Chorus:
C|----------------------------------------------------------|
G|----------------------------------------------------------|
D|-------8----9---8---7---8----9---8---7---8----------10-9--|
A|------------------------------------------------7h8-------|
E|-----6---7-7--6---5---6---7-7--6---5---6---7h9-x----------|
B|-12------------------------------------------------------|
   S   S P S SP S P S P S P S SP S P S P S P S   SP   P  P

C|----------------------------------------------------------------|
G|----------------------------------------------------------------|
D|---8----9---8---7---8----9---8---7---8----------10-9--------8p0-|
A|--------------------------------------------7h8-----------------|
E|-6---7-7--6---5---6---7-7--6---5---6---7h9-x--------------------|
B|----------------------------------------------------------------|
   S P S SP S P S P S P S SP S P S P S P S   SP   P  P        P

C|--------------------------------------------------------|
G|--------------------------------------------------------|
D|-----8----9---8---7---8----9---8---7---8----------10-9--|
A|----------------------------------------------7h8-------|
E|---6---7-7--6---5---6---7-7--6---5---6---7h9-x----------|
B|--------------------------------------------------------|
     S P S SP S P S P S P S SP S P S P S P S   SP   P  P

C|--------------------------------------------------|
G|--------------------------------------------------|
D|---8----9---8---7---8----9---8---7---8------------|
A|--------------------------------------------7h8---|
E|-6---7-7--6---5---6---7-7--6---5---6---7h9-x------|
B|--------------------------------------------------|
   S P S SP S P S P S P S SP S P S P S P S   SS   



Interlude:
C|----------------------------------------------------------------|
G|----------------------------------------------------------------|
D|-----12---x--10--9----------------------------------------------|
A|---------------------9---8---7---6---9---10---11-----12-----13--|
E|-/10---99---8--7------------------------------------------------|
B|-------------------77--66--55--44--77--88---99---1010---1111----|
    S  P SS P SP SP  SSP SSP SSP SSP SSP SSP  SSP  S S P  S S P


C|------------------------------------------------------------------------------|
G|-----------------------------------------------------------------------6h8---|
D|------------------------------------------------------------------------------|
A|---------------------------------------------------------------5-5------------|
E|------------------------------------------------------------------------------|
B|---2~--------------------------------------x-2~-------------------------------|
     S                                       S S                 S S             

C|------------------------------------------------------------------------------|
G|-----------------------------------------------------------------------x6h8--|
D|----------------------------------------------------------------------x-------|
A|---------------------------------------------------------------5-5-xxx--------|
E|------------------------------------------------------------------------------|
B|-x-2~--------------------------------------x-2~-------------------------------|
   S S                                       S S                 S S SSSSS            

C|--------11--10--9--8--7-------------------------------------------------------|
G|----------10--9--8--7--6-----------------------------------------------6h8---|
D|------------------------------------------------------------------------------|
A|-----------------------------------------------------------------5-7----------|
E|--------------------------5h6---------------------------------5-7-------------|
B|-x-2~--------------------------------------x-2~-------------------------------|
   S S    R R R R RR RR RR                   S S                S SS S

C|-------13--12--11--10--9------------------------------------------------------|
G|---------12--11--10--9--8----------------------------------------------6h8---|
D|--------------------------------------------------------------------x-x-------|
A|-----------------------------------------------------------------5-7----------|
E|--------------------------5h6-------------x-------------------5-7-------------|
B|-x-2~----------------------------------x-x-x-2~-------------------------------|
   S S   R R R R RR RR RR                S SSS S                S SS SS S

                                       (3)
Suggest correction
Give kudos to tab author, rate the tab!
1 2 3 4 5
comments
print report bad tab
guest
You may want to rate the tab now too:
select rating
Wanna post a correction for this tab? Suggest correction