Oops, an error
Loading. Please wait.

Year Of The Parrot bass

by Primus
502 views 1 this week
no commentswrite comment
1 2 3 4 5
3 more votes to show rating
add to favorites
×
Save as Personal and add changes to this tab that will be seen only by you. Learn more ›
×
You can save this tab as Personal to edit and correct it or add notes. All changes will be seen only by you. Learn more »
launch autoscroll
font size
0
reset
guitar tuner
edit
Autoscroll
slow
fast
+/-
esc
set tempo
stop
Author
Difficulty
This could be done on a 5-string, that's how I do it;  but it's easier on a 6-string.

Main riff  (in the intro for improv, move 1 fret higher)
C|------------0------0------0-|
G|-17p14----------------------|
D|-14-------------------------|
A|----------------------------|
E|----------------------------|
B|------13\-3/-13\-3/-13\-3/--|

Chorus/solo riff
C|-2-----------|-------------|
G|-2-----------|-5-----------|
D|-------------|-5-----------|
A|-------------|-------------|
E|-------5-----|-------3-----|
B|---7-5---7-5-|---5-3---5-3-|

Last time
C|-3-3---------------------|
G|-3-3---------------------|
D|-------------------------|
A|-------------1-1---------|
E|-----3-3-1-1-----3-3-1-1-|
B|-------------------------|

Improv during quiet solo
C|---------------------------------|
G|-17-17-18-18-17\-14-15-14-15-17\-|
D|-14-14-15-15-14\-12-13-12-13-14\-|
A|---------------------------------| x1
E|---------------------------------|
B|---------------------------------|

There ya have it. Odd song with odd time signature.
Suggest correction
Creating personal tab
Creating personal tab
You can edit any tab online and save it as your Personal.

You can edit, replace or remove any tab part or add personal notes – all changes will be seen only by you.

Personal tabs can be accessed anytime from any device, even offline.
Learn more »
Give kudos to tab author, rate the tab!
1 2 3 4 5
comments
print report bad tab
guest
You may want to rate the tab now too:
select rating
Wanna post a correction for this tab? Suggest correction