Oops, an error
Loading. Please wait.

1999 bass

version 1
version 1

Whole song

Interactive

by Prince
3,022 views 6 this week
no commentswrite comment
1 2 3 4 5
2 more votes to show rating
add to favorites
×
Save as Personal and add changes to this tab that will be seen only by you. Learn more ›
×
You can save this tab as Personal to edit and correct it or add notes. All changes will be seen only by you. Learn more »
launch autoscroll
font size
0
reset
guitar tuner
backing track
0:00
0:00
edit
Autoscroll
slow
fast
+/-
esc
set tempo
stop
Author
Difficulty
                                       1999
                                      Prince

Bass                                                              Prince 

As played by Prince

Intro

|-----------------|-----------------|-----------------|-----------------|
|-----------------|-----------------|-----------------|-----------------|
|-3---------------|(3)--------------|(3)--------------|(3)--------------|
|-----------------|-----------------|-----------------|-----------------|
  W                 W                 W                 W

|-----------------|-----------------|-----------------|-----------------|
|-----------------|-----------------|-----------------|-----------------|
|-3---------------|(3)--------------|(3)--------------|-----------------|
|-----------------|-----------------|-----------------|-----------------|
  W                 W                 W                 W

|-----------------|-----------------|-----------------|-----------------|
|-----------------|-----------------|-----------------|-----------------|
|-----------------|-----------------|-----------------|-------------3-5-|
|-1-------1-------|-1-------1-------|-1-------1-------|-1---1---1-------|
  Q   Q   Q   Q     Q   Q   Q   Q     Q   Q   Q   Q     Q   Q   Q   E E

|-----------------|-----------------|-----------------|-----------------|
|-----------------|-----------------|-------------3---|-----------------|
|-----------------|-------------5---|-----------------|-------------3-5-|
|-1---1---1---1---|-1-------1-------|-1-------1-------|-1-------1-------|
  Q   Q   Q   Q     Q   Q   Q   Q     Q   Q   Q   Q     Q   Q   Q   E E

Verse 1

|-----------------|-----------------|-----------------|-----------------|
|-----------------|-----------------|-----------------|-----------------|
|-----------------|-----------------|-----------------|-------------3-5-|
|-1-------1-------|-1-------1-------|-1-------1-------|-1-------1-------|
  Q   Q   Q   Q     Q   Q   Q   Q     Q   Q   Q   Q     Q   Q   Q   E E

|-----------------|-----------------|-----------------|-----------------|
|-----------------|-----------------|-----------------|-----------------|
|-----------------|-----------------|-----------------|-------------3-5-|
|-1-------1-------|-1-------1-------|-1-------1-------|-1-------1-------|
  Q   Q   Q   Q     Q   Q   Q   Q     Q   Q   Q   Q     Q   Q   Q   E E

|-----------------|-----------------|-----------------|-----------------|
|-----------------|-----------------|-----------------|-----------------|
|-----------------|-----------------|-----------------|-------------3---|
|-1-------1-------|-1-------1-------|-1-------1-------|-1-------1-------|
  Q   Q   Q   Q     Q   Q   Q   Q     Q   Q   Q   Q     Q   Q   Q   Q

|-----------------|-----------------|-----------------|-----------------|
|-----------------|-----------------|-----------------|-----------------|
|-----------------|-----------------|-----------------|-------------3-5-|
|-1-------1-------|-1-------1---1---|-1-------1-------|-1-------1-------|
  Q   Q   Q   Q     Q   Q   Q   Q     Q   Q   Q   Q     Q   Q   Q   E E

Chorus 1

|-----------------|-----------------|-----------------|-----------------|
|-----------------|-----------------|-----------------|-----------------|
|-1-------1-------|-1-------1-------|-5-------5-------|-5-------5-------|
|-----------------|-----------------|-----------------|-----5-----------|
  Q   Q   Q   Q     Q   Q   Q   Q     Q   Q   Q   Q     Q   Q   Q   Q

|-----------------|-----------------|-----------------|-----------------|
|-----------------|-----------------|-----------------|-----------------|
|-----------------|-----------------|-----------------|-------------3-5-|
|-1-------1-------|-1-------1---1---|-1-------1-------|-1-------1-------|
  Q   Q   Q   Q     Q   Q   Q   Q     Q   Q   Q   Q     Q   Q   Q   E E

|-----------------|-----------------|-----------------|-----------------|
|-----------------|-----------------|-----------------|-----------------|
|-1-------1-------|-1-------1-------|-5-------5-------|-5-------5-------|
|-----------------|-----------------|-----------------|-----5-----------|
  Q   Q   Q   Q     Q   Q   Q   Q     Q   Q   Q   Q     Q   Q   Q   Q

|-----------------|-----------------|-----------------|-----------------|
|-----------------|-----------------|-----------------|-----------------|
|-----------------|-----------------|-----------------|-------------3-5-|
|-1-------1-------|-1-------1---1---|-1-------1-------|-1-------1-------|
  Q   Q   Q   Q     Q   Q   Q   Q     Q   Q   Q   Q     Q   Q   Q   E E

Verse 2

|-----------------|-----------------|-----------------|-----------------|
|-----------------|-----------------|-----------------|-----------------|
|-----------------|-----------------|-----------------|-------------3-5-|
|-1-------1-------|-1-------1-------|-1-------1-------|-1-------1-------|
  Q   Q   Q   Q     Q   Q   Q   Q     Q   Q   Q   Q     Q   Q   Q   E E

|-----------------|-----------------|-----------------|-----------------|
|-----------------|-----------------|-----------------|-----------------|
|-----------------|-----------------|-----------------|-------------3-5-|
|-1-------1-------|-1-------1-------|-1-------1-------|-1-------1-------|
  Q   Q   Q   Q     Q   Q   Q   Q     Q   Q   Q   Q     Q   Q   Q   E E

|-----------------|-----------------|-----------------|-----------------|
|-----------------|-----------------|-----3-------3---|-----------------|
|-----------------|-----------------|-----------------|-------------3-5-|
|-1-------1-------|-1-------1-------|-1-------1-------|-1---1---1-------|
  Q   Q   Q   Q     Q   Q   Q   Q     Q   Q   Q   Q     Q   Q   Q   E E

|-----------------|-----------------|-----------------|-----------------|
|-----3-------3---|-3-3-3-------3---|-----3-------3---|-----3-----------|
|-----------------|-----------------|-----------------|-------------3-5-|
|-1-------1-------|---------1-------|-1-------1-------|-1-------1-------|
  Q   Q   Q   Q     E E Q   Q   Q     Q   Q   Q   Q     Q   Q   Q   E E

Chorus 2

|-----------------|-----------------|-----------------|-----------------|
|-----------------|-----------------|-----------------|-----------------|
|-1-------1-------|-1-------1-------|-5-------5-------|-5-------5-------|
|-----------------|-----------------|-----------------|-----5-----------|
  Q   Q   Q   Q     Q   Q   Q   Q     Q   Q   Q   Q     Q   Q   Q   Q

|-----------------|-----------------|-----------------|-----------------|
|-----------------|-----------------|-----------------|-----------------|
|-----------------|-----------------|-----------------|-------------3-5-|
|-1-------1-------|-1-------1---1---|-1-------1-------|-1-------1-------|
  Q   Q   Q   Q     Q   Q   Q   Q     Q   Q   Q   Q     Q   Q   Q   E E

|-----------------|-----------------|-----------------|-----------------|
|-----------------|-----------------|-----------------|-----------------|
|-1-------1-------|-1-------1-------|-5-------5-------|-5-------5-------|
|-----------------|-----------------|-----------------|-----5-----------|
  Q   Q   Q   Q     Q   Q   Q   Q     Q   Q   Q   Q     Q   Q   Q   Q

|-----------------|-----------------|-----------------|-----------------|
|-----------------|-----------------|-----------------|-----------------|
|-----------------|-----------------|-----------------|-------------3-5-|
|-1-------1-------|-1-------1---1---|-1-------1-------|-1-------1-------|
  Q   Q   Q   Q     Q   Q   Q   Q     Q   Q   Q   Q     Q   Q   Q   E E

Interlude 1

|-----------------|-----------------|-----------------|-----------------|
|-----------------|-----------------|-----------------|-----3-----------|
|-----------------|-------------3-5-|-----------------|-------------3-5-|
|-1-------1-------|-1---1---1-------|-1-------1-------|-1-------1-------|
  Q   Q   Q   Q     Q   Q   Q   E E   Q   Q   Q   Q     Q   Q   Q   E E

Verse 3

|-----------------|-----------------|-----------------|-----------------|
|-----------------|-----------------|-----3-------3---|-----------------|
|-----------------|-----------------|-----------------|-------------3-5-|
|-1-------1-------|-1-------1-------|-1-------1-------|-1---1---1-------|
  Q   Q   Q   Q     Q   Q   Q   Q     Q   Q   Q   Q     Q   Q   Q   E E

|-----------------|-----------------|-----------------|-----------------|
|-----------------|-------------3---|-----3-------3---|-----------------|
|-----------------|-----------------|-----------------|-------------3-5-|
|-1-------1-------|-1-------1-------|-1-------1-------|-1-------1-------|
  Q   Q   Q   Q     Q   Q   Q   Q     Q   Q   Q   Q     Q   Q   Q   E E

|-----------------|-----------------|-----------------|-----------------|
|-----------------|-----------------|-----3-------3---|-----------------|
|-----------------|-----------------|-----------------|-------------3-5-|
|-1-------1-------|-1-------1-------|-1-------1-------|-1-------1-------|
  Q   Q   Q   Q     Q   Q   Q   Q     Q   Q   Q   Q     Q   Q   Q   E E

|-----------------|-----------------|-----------------|-----------------|
|-----------------|-----------------|-----3-------3---|-----3-----------|
|-----------------|-----------------|-----------------|-------------5---|
|-1-------1-------|-1-------1-------|-1-------1-------|-1-------1-------|
  Q   Q   Q   Q     Q   Q   Q   Q     Q   Q   Q   Q     Q   Q   Q   Q

Chorus 3
|-----------------|-----------------|-----------------|-----------------|
|-----------------|-----------------|-----------------|-----------------|
|-1-------1-------|-1-------1-------|-5-------5-------|-5-------5-------|
|-----------------|-----------------|-----------------|-----5-----------|
  Q   Q   Q   Q     Q   Q   Q   Q     Q   Q   Q   Q     Q   Q   Q   Q

|-----------------|-----------------|-----------------|-----------------|
|-----------------|-----------------|-----------------|-----------------|
|-----------------|-----------------|-----------------|-------------3-5-|
|-1-------1-------|-1-------1---1---|-1-------1-------|-1-------1-------|
  Q   Q   Q   Q     Q   Q   Q   Q     Q   Q   Q   Q     Q   Q   Q   E E

|-----------------|-----------------|-----------------|-----------------|
|-----------------|-----------------|-----------------|-----------------|
|-1-------1-------|-1-------1-------|-5-------5-------|-5-------5-------|
|-----------------|-----------------|-----------------|-----5-----------|
  Q   Q   Q   Q     Q   Q   Q   Q     Q   Q   Q   Q     Q   Q   Q   Q

|-----------------|-----------------|-----------------|-----------------|
|-----------------|-----------------|-----------------|-----------------|
|-----------------|-----------------|-----------------|-------------3-5-|
|-1-------1-------|-1-------1---1---|-1-------1-------|-1-------1-------|
  Q   Q   Q   Q     Q   Q   Q   Q     Q   Q   Q   Q     Q   Q   Q   E E

|-----------------|-----------------|-----------------|-----------------|
|-----------------|-----------------|-----------------|-----------------|
|-1-------1-------|-1-------1-------|-5-------5-------|-5-------5-------|
|-----------------|-----------------|-----------------|-----5-----------|
  Q   Q   Q   Q     Q   Q   Q   Q     Q   Q   Q   Q     Q   Q   Q   Q

|-----------------|-----------------|-----------------|-----------------|
|-----------------|-----------------|-----------------|-----------------|
|-----------------|-----------------|-----------------|-------------3-5-|
|-1-------1-------|-1-------1---1---|-1-------1-------|-1-------1-------|
  Q   Q   Q   Q     Q   Q   Q   Q     Q   Q   Q   Q     Q   Q   Q   E E

|-----------------|-----------------|-----------------|-----------------|
|-----------------|-----------------|-----------------|-----------------|
|-1-------1-------|-1-------1-------|-5-------5-------|-5-------5-------|
|-----------------|-----------------|-----------------|-----5-----------|
  Q   Q   Q   Q     Q   Q   Q   Q     Q   Q   Q   Q     Q   Q   Q   Q

|-----------------|-----------------|-----------------|-----------------|
|-----------------|-----------------|-----------------|-----------------|
|-----------------|-----------------|-----------------|-------------3-5-|
|-1-------1-------|-1-------1---1---|-1-------1-------|-1-------1-------|
  Q   Q   Q   Q     Q   Q   Q   Q     Q   Q   Q   Q     Q   Q   Q   E E

Interlude 2

||------------------|-----------------|-----------------|------------------||
||o-----3-------3---|-----3-----------|-----3-------3---|-----3-----------o||
||o-----------------|-------------3-5-|-----------------|-------------3-5-o||
||--1-------1-------|-1-------1-------|-1-------1-------|-1-------1--------||
    Q   Q   Q   Q     Q   Q   Q   E E   Q   Q   Q   Q     Q   Q   Q   E E

Chorus 4

|-----------------|-----------------|-----------------|-----------------|
|-----------------|-----------------|-----------------|-----------------|
|-1-------1-------|-1-------1-------|-5-------5-------|-5---5---5-------|
|-----------------|-----------------|-----------------|-----------------|
  Q   Q   Q   Q     Q   Q   Q   Q     Q   Q   Q   Q     Q   Q   Q   Q

|-----------------|-----------------|-----------------|-----------------|
|---------3-------|---------3-------|-----------------|-----------------|
|-----------------|-----------------|-----------------|-------------3-5-|
|-1---------------|-1-----------1---|-1-------1-------|-1-------1-------|
  Q   Q   Q   Q     Q   Q   Q   Q     Q   Q   Q   Q     Q   Q   Q   E E

|-----------------|-----------------|-----------------|-----------------|
|-----------------|-----------------|-----------------|-----------------|
|-1-------1-------|-1-------1-------|-5-------5-------|-5---5---5-------|
|-----------------|-----------------|-----------------|-----------------|
  Q   Q   Q   Q     Q   Q   Q   Q     Q   Q   Q   Q     Q   Q   Q   Q

|-----------------|-----------------|-----------------|-----------------|
|---------3-------|---------3-------|-----------------|-----------------|
|-----------------|-----------------|-----------------|-------------3-5-|
|-1---------------|-1-----------1---|-1-------1-------|-1-------1-------|
  Q   Q   Q   Q     Q   Q   Q   Q     Q   Q   Q   Q     Q   Q   Q   E E

Interlude 3
                                                                         x6
||------------------|-----------------|-----------------|------------------||
||o-----3-------3---|-----3-----------|-----3-------3---|-----3-----------o||
||o-----------------|-------------3-5-|-----------------|-------------3-5-o||
||--1-------1-------|-1-------1-------|-1-------1-------|-1-------1--------||
    Q   Q   Q   Q     Q   Q   Q   E E   Q   Q   Q   Q     Q   Q   Q   E E

Outro

|-------------------|-----------------|-------------------|-------------------|
|-----3-----1-1-3---|-----------------|-----3-----1-1-3---|-----------3-3-----|
|-------------------|-------------3-5-|-------------------|---------------3-5-|
|-1-------1---------|-1-------1-------|-1-------1---------|-1-------1---------|
  Q   Q   S S E Q     Q   Q   Q   E E   Q   Q   S S E Q     Q   Q   Q S S E E

|-------------------|-----------------|-------------------|----------/15-14---|
|-----3-----1-1-3---|-----------------|-----3-----1-1-3---|----------------15-|
|-------------------|-------------3-5-|-------------------|-------------------|
|-1-------1---------|-1-------1-------|-1-------1---------|-1-------1---------|
  Q   Q   S S E Q     Q   Q   Q   E E   Q   Q   S S E Q     Q   Q   E E  E E

|-----------------|-----------------|-------------------|----------/17-14---|
|-----------1-3---|-----------------|-----3-----1-1-3---|----------------15-|
|-----------------|-------------3-5-|-------------------|-------------------|
|-1---------------|-1-------1-------|-1-------1---------|-1-------1---------|
  Q   Q   E E Q     Q   Q   Q   E E   Q   Q   S S E Q     Q   Q   E E  E E

|-----------------|-----------------|-----------------|-----------------|
|-----------1-3---|-----------------|-----------1-3---|-----------------|
|-----------------|-------------3-5-|-----------------|-------------3-5-|
|-1---------------|-1-------1-------|-1---------------|-1-------1-------|
  Q   Q   E E Q     Q   Q   Q   E E   Q   Q   E E Q     Q   Q   Q   E E 

|-----------------|--------/12-13---|-8-10------------|-----------------|
|-----------1-3---|-----------------|-----------1-3---|-----------------|
|-----------------|-----------------|-----------------|-------------3-5-|
|-1---------------|-1---------------|-----------------|-1---------------|
  Q   Q   E E Q     Q   Q   E  Q.     E E Q   E E Q     Q   Q   Q   E E 

|-----------------|-----10--8---6---|-5---------------|-----------------||
|-----------1-3---|-----------------|-----------------|--    Guitar   --||
|-----------------|-----8---6---4---|-3---------------|--     Only    --||
|-1---------------|-1---------------|-----------------|------------------|
  Q   Q   E E Q     Q   Q   Q   Q.    Q


Key to rhythm notations:

W - Whole Note/Semi-Brieve
H - Half Note/Minim
Q - Quarter Note/Crotchet       Q. - Dotted Quarter Note
E - Eight Note/Quaver           E. - Dotted Eight Note
S - Sixteenth Note/Semi-Quaver  S. - Dotted Sixteenth Note

            
            
Suggest correction
Creating personal tab
Creating personal tab
You can edit any tab online and save it as your Personal.

You can edit, replace or remove any tab part or add personal notes – all changes will be seen only by you.

Personal tabs can be accessed anytime from any device, even offline.
Learn more »
Give kudos to tab author, rate the tab!
1 2 3 4 5
comments
print report bad tab
guest
You may want to rate the tab now too:
select rating
Wanna post a correction for this tab? Suggest correction