Oops, an error
Loading. Please wait.

1999 chords

version 2
version 2

Whole song

  • From the 1982 album 1999.
  • Keyboard arranged for guitar with sample guitar figure.
  • Includes rhythm changes, simpler, easier-to-play, open-style chords.

Interactive

by Prince
640 views 33 this week
no commentswrite comment
1 2 3 4 5
3 more votes to show rating
add to favorites
×
Save as Personal and add changes to this tab that will be seen only by you. Learn more ›
×
You can save this tab as Personal to edit and correct it or add notes. All changes will be seen only by you. Learn more »
launch autoscroll
font size
0
reset
transpose
0
reset
simplify chords
display chords
guitar tuner
backing track
0:00
0:00
edit
Autoscroll
slow
fast
+/-
esc
set tempo
stop
Author
Difficulty
About this tab version
Keyboard arranged for guitar with sample guitar figure. Was this info helpful? Yes No
Strumming
There is no strumming pattern for this song yet. and get +5 IQ
[Intro]

Keyboard
       F/C Gm/C    F/C   Gm/C          F/C Gm/C    F/C   Gm/C
E|-----5---6-----|-8-----6-------|-----5---6-----|-8-----6-------|
B|-----6---8-----|-10----8-------|-----6---8-----|-10----8-------|
G|-----5---7-----|-10----7-------|-----5---7-----|-10----7-------|
D|-----7---8-----|-10----8-------|-----7---8-----|-10----8-------|
A|(3)------------|---------------|(3)------------|---------------|
E|---------------|---------------|---------------|---------------|

   Keyboard
       F   Gm/F    F     Gm/F          F   Gm/F    F   Gm/F F
E|-----5---6-----|-8-----6-------|-----5---6-----|-8---6----5----|
B|-----6---8-----|-10----8-------|-----6---8-----|-10--8----6----|
G|-----5---7-----|-10----7-------|-----5---7-----|-10--7----5----|
D|-----7---8-----|-10----8-------|-----7---8-----|-10--8----7----|
A|---------------|---------------|---------------|---------------|
E|---------------|---------------|---------------|---------------|
 |               |               |               |               |
 | Guitar        |               |               |               |
E|---------------|---------------|---------------|---------------|
B|-8h10-x-8----x-|---8h10--------|-8h10-x-8----x-|---8h10--------|
G|-8----x-8----x-|---8-----------|-8----x-8----x-|---8-----------|
D|-8h10-x-8h10-x-|---8h10--------|-8h10-x-8h10-x-|---8h10--------|
A|-8----x-8----x-|-x-8----x------|-8----x-8----x-|-x-8----x------|
E|---------------|---------------|---------------|---------------|

[Verse 1]
               F      Gm/F    
I was dreamin' when I wrote this
   F          Gm/F           F Gm/F F Gm/F F
Forgive me if it goes astray
                   F    Gm/F
But when I woke up this morning
             F            Gm/F         F Gm/F F Gm/F F
I could have sworn it was judgment day
            F   Gm/F
The sky was all purple
           F         Gm/F            F Gm/F F Gm/F F
There were people runnin' everywhere
          F              Gm/F
Tryin' to run from the destruction
        F             Gm/F      F Gm/F F Gm/F F
And you know I didn't even care          'Cuz they say...  

[Chorus 1]
Bb             Bbsus4 Dm                    F Gm/F F Gm/F F
2000 zero zero party  over oops out of time
Bb                         Bbsus4    Dm   F Gm/F F Gm/F F
So tonight I'm gonna party like it's 1999

[Verse 2]
               F      Gm/F  
I was dreamin' when I wrote this
   F           Gm/F        F Gm/F F Gm/F F
So sue me if I go too fast
            F      Gm/F
But life is just a party
    F               Gm/F         F Gm/F F Gm/F F
And parties weren't meant to last
        F   Gm/F  
War is all around us
   F            Gm/F         F Gm/F F Gm/F F
My mind says prepare to fight
        F     Gm/F  
So if I gotta die
          F            Gm/F         F Gm/F F Gm/F F
I'm gonna listen to my body tonight          'Cuz they say...  

[Chorus 2]
Bb             Bbsus4 Dm                    F Gm/F F Gm/F F
2000 zero zero party  over oops out of time
Bb                         Bbsus4    Dm   F Gm/F F Gm/F F
So tonight I'm gonna party like it's 1999

[Interlude 1]
F Gm/F F Gm/F F x4

[Verse 3]
              F       Gm/F 
If you didn't come to party
      F               Gm/F       F Gm/F F Gm/F F
Don't bother knockin' on my door
             F     Gm/F 
I got a lion in my pocket
    F         Gm/F          F Gm/F F Gm/F F
And baby he's ready to roar
            F     Gm/F 
Everybody's got a bomb
         F       Gm/F    F Gm/F F Gm/F F
We could all die any day
                F        Gm/F
But before I'll let that happen
     F        Gm/F      F Gm/F F Gm/F F
I'll dance my life away          'Cuz they say... 

[Chorus 3]
Bb             Bbsus4 Dm                    F Gm/F F Gm/F F
2000 zero zero party  over oops out of time
Bb                         Bbsus4    Dm   F Gm/F F Gm/F F
So tonight I'm gonna party like it's 1999
Bb             Bbsus4 Dm                    F Gm/F F Gm/F F
2000 zero zero party  over oops out of time
Bb                         Bbsus4    Dm   F Gm/F F Gm/F F
So tonight I'm gonna party like it's 1999

[Interlude 2]
F Gm/F F Gm/F F x4

[Chorus 4]
Bb             Bbsus4 Dm                    F Gm/F F Gm/F F
2000 zero zero party  over oops out of time
Bb                         Bbsus4    Dm   F Gm/F F Gm/F F
So tonight I'm gonna party like it's 1999

[Outro]
F Gm/F F Gm/F F

            
            
Suggest correction
Creating personal tab
Creating personal tab
You can edit any tab online and save it as your Personal.

You can edit, replace or remove any tab part or add personal notes – all changes will be seen only by you.

Personal tabs can be accessed anytime from any device, even offline.
Learn more »
Give kudos to tab author, rate the tab!
1 2 3 4 5
comments
print report bad tab
guest
You may want to rate the tab now too:
select rating
Wanna post a correction for this tab? Suggest correction