Oops, an error
Loading. Please wait.

Alphabet Street tab

version 1
version 1

Whole song

Interactive

by Prince
1,512 views 6 this week
no commentswrite comment
1 2 3 4 5
3 more votes to show rating
add to favorites
×
Save as Personal and add changes to this tab that will be seen only by you. Learn more ›
×
You can save this tab as Personal to edit and correct it or add notes. All changes will be seen only by you. Learn more »
launch autoscroll
font size
0
reset
how to read this tab
guitar tuner
edit
Autoscroll
slow
fast
+/-
esc
set tempo
stop
Author
Difficulty
ALPHABET STREET

As recorded by Prince
(From the 1988 Album LOVESEXY)

Words and Music by Prince

Transcribed by Slowhand


Gtr I (E A D G B E) - 'Prince - Electric Guitar '
Gtr II (E A D G B E) - 'Prince - Electric Guitar'


 Intro
  Q=104
  N.C.
 4/4
  Gtr I (Clean El. Gtr.)
  Wx4
|--------||
|--------||
|--------||
|--------||
|--------||
|--------||


   1st - 3rd Verses
    $
      G
    E e e S S +S  S e S S E   E e e S S +S  S e S S E
||----3-3-x-3-(3)-3-3-x-3---|---3-3-x-3-(3)-3-3-x-3---|
||o---3-3-x-3-(3)-3-3-x-3---|---3-3-x-3-(3)-3-3-x-3---|
||----4-4-x-4-(4)-4-4-x-4---|---4-4-x-4-(4)-4-4-x-4---|
||----5-5-x-5-(5)-5-5-x-5---|---5-5-x-5-(5)-5-5-x-5---|
||o-------------------------|-------------------------|
||--------------------------|-------------------------|


    C
  E  e  e S  S  +S   S  e S  S E
|----8--8-x--8--(8)--8--8-x--8----|
|----8--8-x--8--(8)--8--8-x--8----|
|----9--9-x--9--(9)--9--9-x--9----|
|---10-10-x-10-(10)-10-10-x-10----|
|---------------------------------|
|---------------------------------|


                                                               To Coda
                                     A
  E  e  e S  S  +S   S  e S  S E   E e e S S +S  S e S S E   e E Q  H
|----8--8-x--8--(8)--8--8-x--8---|---5-5-x-5-(5)-5-5-x-5---|--------------|
|----8--8-x--8--(8)--8--8-x--8---|---5-5-x-5-(5)-5-5-x-5---|--------------|
|----9--9-x--9--(9)--9--9-x--9---|---6-6-x-6-(6)-6-6-x-6---|--------------|
|---10-10-x-10-(10)-10-10-x-10---|---7-7-x-7-(7)-7-7-x-7---|--------------|
|--------------------------------|-------------------------|-5------------|
|--------------------------------|-------------------------|--------------|


    G     Bb
  E e e S S +S  S e S S E
|---3-3-x-6-(6)-6-6-x-6---|
|---3-3-x-6-(6)-6-6-x-6---|
|---4-4-x-7-(7)-7-7-x-7---|
|---5-5-x-8-(8)-8-8-x-8---|
|-------------------------|
|-------------------------|


    C                                G     Bb
  E  e  e S  S  +S   S  e S  S E   E e e S S +S  S e S S E
|----8--8-x--8--(8)--8--8-x--8---|---3-3-x-6-(6)-6-6-x-6---|
|----8--8-x--8--(8)--8--8-x--8---|---3-3-x-6-(6)-6-6-x-6---|
|----9--9-x--9--(9)--9--9-x--9---|---4-4-x-7-(7)-7-7-x-7---|
|---10-10-x-10-(10)-10-10-x-10---|---5-5-x-8-(8)-8-8-x-8---|
|--------------------------------|-------------------------|
|--------------------------------|-------------------------|


    C                                G     Bb
  E  e  e S  S  +S   S  e S  S E   E e e S S +S  S e S S E
|----8--8-x--8--(8)--8--8-x--8---|---3-3-x-6-(6)-6-6-x-6---|
|----8--8-x--8--(8)--8--8-x--8---|---3-3-x-6-(6)-6-6-x-6---|
|----9--9-x--9--(9)--9--9-x--9---|---4-4-x-7-(7)-7-7-x-7---|
|---10-10-x-10-(10)-10-10-x-10---|---5-5-x-8-(8)-8-8-x-8---|
|--------------------------------|-------------------------|
|--------------------------------|-------------------------|


    C                       N.C.
                            PM--|
  E  e  e S  S  +S   S  e S S S S
|----8--8-x--8--(8)--8--8---------|
|----8--8-x--8--(8)--8--8---------|
|----9--9-x--9--(9)--9--9---------|
|---10-10-x-10-(10)-10-10-----3---|
|---------------------------5---5-|
|---------------------------------|


  PM--------------------------|
  S S S S S S S S S S S S S S e   W
|-------------------------------|-------||
|-------------------------------|------o||
|-------------------------------|-------||
|-5-3---------------------------|-------||
|-----5-4-3---3-4s3p1-------1---|------o||
|-----------6---------3-1-3---3-|-------||


 Bridge
  G
   e     E     Q           H
|--3----------------------------------------------|
|--3----------------------------------------------|
|--4----------------------------------------------|
|--5----------------------------------------------|
|-------------------------------------------------|
|-------------------------------------------------|
|
| Gtr II (El. Gtr. w/ dist.)
|  S  S  S  S  S  S  S  S  S  S  S  S  S  S  S  S
|-18-18-18-18-18-18-18-18-18-18-15----------------|
|-15-15-15-15-15-15-15-15-15-15-15-17----------15-|
|-15-15-15-15-15-15-15-15-15-15----17-15-------15-|
|-------------------------------------15-17-15----|
|----------------------------------------17-15----|
|-------------------------------------------------|


   e     E     Q           H
|--3----------------------------------------------|
|--3----------------------------------------------|
|--4----------------------------------------------|
|--5----------------------------------------------|
|-------------------------------------------------|
|-------------------------------------------------|
|
|  S  S  S  S  S  S  S  S  S  S  S  S  S  S  S  S
|-------------------------------------------------|
|-15-15-15-15-15-15-15-15-15-17-------------------|
|-15-15-15-15-15-15-15-15-15-17-------------------|
|-------------------------------17-15-17-15-------|
|-------------------------------------------17-15-|
|-------------------------------------------------|


   e  E Q       H            e     E     Q        H
|--3----------------------|--3------------------------------|
|--3----------------------|--3------------------------------|
|--4----------------------|--4------------------------------|
|--5----------------------|--5------------------------------|
|-------------------------|---------------------------------|
|-------------------------|---------------------------------|
|
|  ~~~
|  Q.     S  S  S S  Q.      S  S  S  S  Q       +Q.    +E
|-------------------------|---------------------------------|
|---------0---------------|---------------------------------|
|---------0---------10----|-------10------------------------|
|-17--------10s12p0-------|-10s12----12s10b12===(10)---(10)-|
|-------------------------|---------------------------------|
|-------------------------|---------------------------------|


            A
    E       e    e S S +S  S e   Q
|-----------5----5-x-5-(5)-5-5-------------|
|-----------5----5-x-5-(5)-5-5-------------|
|-----------6----6-x-6-(6)-6-6-------------|
|-----------7----7-x-7-(7)-7-7-------------|
|------------------------------------------|
|------------------------------------------|
|
|                ~~~~~~~~~~
|  +S   +S  S  S Q     +E    S S S S S S
|------------------------------------------|
|------------------------------------------|
|------------------------------------------|
|-(10)r(10)p8----7-----(7)---7h9---5s7-----|
|-------------10---------------------------|
|------------------------------------------|


  N.C.                 G     Bb
  e E Q   H          E e e S S +S  S e S S E
|------------------|---3-3-x-6-(6)-6-6-x-6---|
|------------------|---3-3-x-6-(6)-6-6-x-6---|
|------------------|---4-4-x-7-(7)-7-7-x-7---|
|------------------|---5-5-x-8-(8)-8-8-x-8---|
|-5----------------|-------------------------|
|------------------|-------------------------|
|
| H      +E   E Q    W
|------------------|-------------------------|
|------------------|-------------------------|
|------------------|-------------------------|
|------------------|-------------------------|
|-5------(5)\------|-------------------------|
|------------------|-------------------------|


       C
  E  e  e  S  S      +S   S  e S  S  E
|----8--8--x--8------(8)--8--8-x--8-----|
|----8--8--x--8------(8)--8--8-x--8-----|
|----9--9--x--9------(9)--9--9-x--9-----|
|---10-10--x-10-----(10)-10-10-x-10-----|
|---------------------------------------|
|---------------------------------------|
|
|             ~~~~~~~~~~~~~~~~~~~~~~~~~
| Q     E.    S      +Q.             E
|---------------------------------------|
|------------18b20==(18)------------18--|
|---------------------------------------|
|---------------------------------------|
|---------------------------------------|
|---------------------------------------|


        G     Bb                  C
    E   e e S S +S  S e S S E   E  e  e     S  S  +S   S  e  S  S  E
|-------3-3-x-6-(6)-6-6-x-6---|----8--8-----x--8--(8)--8--8--x--8-------|
|-------3-3-x-6-(6)-6-6-x-6---|----8--8-----x--8--(8)--8--8--x--8-------|
|-------4-4-x-7-(7)-7-7-x-7---|----9--9-----x--9--(9)--9--9--x--9-------|
|-------5-5-x-8-(8)-8-8-x-8---|---10-10-----x-10-(10)-10-10--x-10-------|
|-----------------------------|-----------------------------------------|
|-----------------------------|-----------------------------------------|
|
|   ~~~~~
|  +E   E Q      H              Q     E  a  E      E      E  E     S  S
|-----------------------------|-----------------------------------------|
|-(18)\-----------------------|-----------------------------------------|
|-----------------------------|-----------------------------------------|
|-----------------------------|---------10s12s====10------9-10----10s12s|
|-----------------------------|-----------------------------------------|
|-----------------------------|-----------------------------------------|


     G     Bb
   E e e S S +S  S e S S E
|----3-3-x-6-(6)-6-6-x-6-------|
|----3-3-x-6-(6)-6-6-x-6-------|
|----4-4-x-7-(7)-7-7-x-7-------|
|----5-5-x-8-(8)-8-8-x-8-------|
|------------------------------|
|------------------------------|
|
|  H          Q      E   S  S
|------------------------6s15--|
|------------------------------|
|------------------------------|
|-10---------------------------|
|------------------------------|
|------------------------------|


           C                                                          N.C.
                                                                      PM
   E        e        e        S     S     +S      S     e        S    S     E
|-----------8--------8--------x-----8-----(8)-----8-----8---------------------------|
|-----------8--------8--------x-----8-----(8)-----8-----8---------------------------|
|-----------9--------9--------x-----9-----(9)-----9-----9---------------------------|
|----------10-------10--------x----10----(10)----10----10---------------------------|
|---------------------------------------------------------------------5-------------|
|-----------------------------------------------------------------------------------|
|
|  |------6-------|  |--------6--------|   |--------6---------|  |-------6--------|
|  S  S  S  S  S  S  S  S  S  S  S     S   S   S     S  S  S  S  S  S    S  S  S  S
|-15-15-22-15-22-15-22-22-15-15-22----15--15--15S===18-18-18-22-22-22---18-18-22-22-|
|-----------------------------------------------------------------------------------|
|-----------------------------------------------------------------------------------|
|-----------------------------------------------------------------------------------|
|-----------------------------------------------------------------------------------|
|-----------------------------------------------------------------------------------|


   PM-----------------------------------------------------------------------------------|
   S    S     S    S     S  S  S       +S     +S     S     S    S           S    S      e
|----------------------------------------------------------------------------------------------|
|----------------------------------------------------------------------------------------------|
|----------------------------------------------------------------------------------------------|
|--5----3--------------------------------------------------------------------------------------|
|-------------5----4-----3-----3b4=====(3)r===(3)S===1---------------------------1-------------|
|---------------------------6------------------------------3----1-----------3-----------3------|
|
|  |--------6---------|        |-----3------|  |---------6---------|
|  S  S    S  S  S    S  S  S  S     S      S  S   S    S  S  S    S       +S   +E         +S
|-22-18---18-22-18---18-22-18-22----18-----22-18--22---18-22-22---20pb22==(20)r(20)b22====(20)-|
|----------------------------------------------------------------------------------------------|
|----------------------------------------------------------------------------------------------|
|----------------------------------------------------------------------------------------------|
|----------------------------------------------------------------------------------------------|
|----------------------------------------------------------------------------------------------|


    D.S. al Coda
    W
|-------------------||
|-------------------||
|-------------------||
|-------------------||
|-------------------||
|-------------------||
|
|         >
|  +Q     H.
|-(20)r--20pb21-----||
|-------------------||
|-------------------||
|-------------------||
|-------------------||
|-------------------||


  &
    G     Bb
  E e e S S +S  S e S S E
|---3-3-x-6-(6)-6-6-x-6---|
|---3-3-x-6-(6)-6-6-x-6---|
|---4-4-x-7-(7)-7-7-x-7---|
|---5-5-x-8-(8)-8-8-x-8---|
|-------------------------|
|-------------------------|


    C                                G     Bb
  E  e  e S  S  +S   S  e S  S E   E e e S S +S  S e S S E
|----8--8-x--8--(8)--8--8-x--8---|---3-3-x-6-(6)-6-6-x-6---|
|----8--8-x--8--(8)--8--8-x--8---|---3-3-x-6-(6)-6-6-x-6---|
|----9--9-x--9--(9)--9--9-x--9---|---4-4-x-7-(7)-7-7-x-7---|
|---10-10-x-10-(10)-10-10-x-10---|---5-5-x-8-(8)-8-8-x-8---|
|--------------------------------|-------------------------|
|--------------------------------|-------------------------|


    C
  E  e  e S  S  +S   S  e S  S E
|----8--8-x--8--(8)--8--8-x--8---|
|----8--8-x--8--(8)--8--8-x--8---|
|----9--9-x--9--(9)--9--9-x--9---|
|---10-10-x-10-(10)-10-10-x-10---|
|--------------------------------|
|--------------------------------|


    G     Bb                  C
  E e e S S +S  S e S S E   E  e  e S  S  +S   S  e S  S E
|---3-3-x-6-(6)-6-6-x-6---|----8--8-x--8--(8)--8--8-x--8---|
|---3-3-x-6-(6)-6-6-x-6---|----8--8-x--8--(8)--8--8-x--8---|
|---4-4-x-7-(7)-7-7-x-7---|----9--9-x--9--(9)--9--9-x--9---|
|---5-5-x-8-(8)-8-8-x-8---|---10-10-x-10-(10)-10-10-x-10---|
|-------------------------|--------------------------------|
|-------------------------|--------------------------------|


  N.C.                  G6
  W          W          W
|----------|----------|-3----||
|----------|----------|-5----||
|----------|----------|-4----||
|----------|----------|-5----||
|----------|----------|------||
|----------|----------|-3----||


 Bridge
  Wx4
|--------|
|--------|
|--------|
|--------|
|--------|
|--------|


    G
  E e e S S +S  S e S S E   E e e S S +S  S e S S E
|---3-3-x-3-(3)-3-3-x-3---|---3-3-x-3-(3)-3-3-x-3---|
|---3-3-x-3-(3)-3-3-x-3---|---3-3-x-3-(3)-3-3-x-3---|
|---4-4-x-4-(4)-4-4-x-4---|---4-4-x-4-(4)-4-4-x-4---|
|---5-5-x-5-(5)-5-5-x-5---|---5-5-x-5-(5)-5-5-x-5---|
|-------------------------|-------------------------|
|-------------------------|-------------------------|


    C
  E  e  e S  S  +S   S  e S  S E
|----8--8-x--8--(8)--8--8-x--8---|
|----8--8-x--8--(8)--8--8-x--8---|
|----9--9-x--9--(9)--9--9-x--9---|
|---10-10-x-10-(10)-10-10-x-10---|
|--------------------------------|
|--------------------------------|


                                     A                       N.C.
                                                                       PM--|
  E  e  e S  S  +S   S  e S  S E   E e e S S +S  S e S S E   e E Q  Q  S E S
|----8--8-x--8--(8)--8--8-x--8---|---5-5-x-5-(5)-5-5-x-5---|-----------------|
|----8--8-x--8--(8)--8--8-x--8---|---5-5-x-5-(5)-5-5-x-5---|-----------------|
|----9--9-x--9--(9)--9--9-x--9---|---6-6-x-6-(6)-6-6-x-6---|-----------------|
|---10-10-x-10-(10)-10-10-x-10---|---7-7-x-7-(7)-7-7-x-7---|-----------------|
|--------------------------------|-------------------------|-5---------5---5-|
|--------------------------------|-------------------------|-----------------|


                                     Bb A  G#   G
  PM--------------------------|
  S S S S S S S S S S S S S S e   Q  q  Q  Q    e E Q  H
|-------------------------------|----6--5--4--|-3-----------|
|-------------------------------|----6--5--4--|-3-----------|
|-------------------------------|----7--6--5--|-4-----------|
|-5-3---------------------------|----8--7--6--|-5-----------|
|-----5-4-3---3-4S3-1-------1---|-------------|-------------|
|-----------6---------3-1-3---3-|-------------|-------------|


                 G
  Wx3          E e e S S +S  S e S S E
|------------|---3-3-x-3-(3)-3-3-x-3---|
|------------|---3-3-x-3-(3)-3-3-x-3---|
|------------|---4-4-x-4-(4)-4-4-x-4---|
|------------|---5-5-x-5-(5)-5-5-x-5---|
|------------|-------------------------|
|------------|-------------------------|


                              C
  E e e S S +S  S e S S E   E  e  e S  S  +S   S  e S  S E
|---3-3-x-3-(3)-3-3-x-3---|----8--8-x--8--(8)--8--8-x--8---|
|---3-3-x-3-(3)-3-3-x-3---|----8--8-x--8--(8)--8--8-x--8---|
|---4-4-x-4-(4)-4-4-x-4---|----9--9-x--9--(9)--9--9-x--9---|
|---5-5-x-5-(5)-5-5-x-5---|---10-10-x-10-(10)-10-10-x-10---|
|-------------------------|--------------------------------|
|-------------------------|--------------------------------|


                                     A                       N.C.
                                                                       PM--|
  E  e  e S  S  +S   S  e S  S E   E e e S S +S  S e S S E   e E Q  Q  S E S
|----8--8-x--8--(8)--8--8-x--8---|---5-5-x-5-(5)-5-5-x-5---|-----------------|
|----8--8-x--8--(8)--8--8-x--8---|---5-5-x-5-(5)-5-5-x-5---|-----------------|
|----9--9-x--9--(9)--9--9-x--9---|---6-6-x-6-(6)-6-6-x-6---|-----------------|
|---10-10-x-10-(10)-10-10-x-10---|---7-7-x-7-(7)-7-7-x-7---|-----------------|
|--------------------------------|-------------------------|-5---------5---5-|
|--------------------------------|-------------------------|-----------------|


                                     Bb A  G#   G
  PM--------------------------|
  S S S S S S S S S S S S S S e   Q  q  Q  Q    e E Q  H
|-------------------------------|----6--5--4--|-3-----------||
|-------------------------------|----6--5--4--|-3-----------||
|-------------------------------|----7--6--5--|-4-----------||
|-5-3---------------------------|----8--7--6--|-5-----------||
|-----5-4-3---3-4S3-1-------1---|-------------|-------------||
|-----------6---------3-1-3---3-|-------------|-------------||


 Breakdown
  N.C.           G9
  Wx3          E  e  e S  S H      E  e  e E H
|------------|---10-10---10------|---10-10--------|
|------------|---10-10---10------|---10-10--------|
|------------|---10-10---10------|---10-10--------|
|------------|-------------------|----------------|
|------------|-------------------|----------------|
|------------|-------------------|----------------|


                                       N.C.
  E  e  e S  S H      E  e  e E H      S E S E S S +E  S S +E  E
|---10-10---10------|---10-10--------|---------------------------|
|---10-10---10------|---10-10--------|-5---5---5-----------------|
|---10-10---10------|---10-10--------|-3p0-3p0-3p0-(0)-3h4-(4)---|
|-------------------|----------------|-----------------3---------|
|-------------------|----------------|---------------------------|
|-------------------|----------------|---------------------------|


  S E S E S S +H       S E S E S S +E  S S +E  E   S E S E S S +H
|--------------------|---------------------------|--------------------|
|-5---5--------------|-5---5---5-----------------|-5---5--------------|
|-3p0-3p0-3p0-(0)----|-3p0-3p0-3p0-(0)-3h4-(4)---|-3p0-3p0-3p0-(0)----|
|--------------------|-----------------3---------|--------------------|
|--------------------|---------------------------|--------------------|
|--------------------|---------------------------|--------------------|


                 G
  Wx2          E e e S S +S  S e S S E
|------------|---3-3-x-3-(3)-3-3-x-3---|
|------------|---3-3-x-3-(3)-3-3-x-3---|
|------------|---4-4-x-4-(4)-4-4-x-4---|
|------------|---5-5-x-5-(5)-5-5-x-5---|
|------------|-------------------------|
|------------|-------------------------|


                              C
  E e e S S +S  S e S S E   E  e  e S  S  +S   S  e S  S E
|---3-3-x-3-(3)-3-3-x-3---|----8--8-x--8--(8)--8--8-x--8---|
|---3-3-x-3-(3)-3-3-x-3---|----8--8-x--8--(8)--8--8-x--8---|
|---4-4-x-4-(4)-4-4-x-4---|----9--9-x--9--(9)--9--9-x--9---|
|---5-5-x-5-(5)-5-5-x-5---|---10-10-x-10-(10)-10-10-x-10---|
|-------------------------|--------------------------------|
|-------------------------|--------------------------------|


  E  e  e S  S  +S   S  e S  S E
|----8--8-x--8--(8)--8--8-x--8---|
|----8--8-x--8--(8)--8--8-x--8---|
|----9--9-x--9--(9)--9--9-x--9---|
|---10-10-x-10-(10)-10-10-x-10---|
|--------------------------------|
|--------------------------------|


      A                           N.C.
                                              PM--|
  S S e S S S S +S  S S S S S E   e E Q  Q  S S S S
|-x-x-5-5-5-5-5-(5)-5-5-5-5-5---|---------------------|
|-x-x-5-5-5-5-5-(5)-5-5-5-5-5---|---------------------|
|-x-x-6-6-6-6-6-(6)-6-6-6-6-6---|---------------------|
|-x-x-7-7-7-7-7-(7)-7-7-7-7-7---|---------------3-----|
|-------------------------------|-5-----------5---5---|
|-------------------------------|---------------------|


                                     Bb A  G#
  PM--------------------------|
  S S S S S S S S S S S S S S e   Q  q  Q  Q
|-------------------------------|----6--5--4--||
|-------------------------------|----6--5--4--||
|-------------------------------|----7--6--5--||
|-5-3---------------------------|----8--7--6--||
|-----5-4-3---3-4s3p1-------1---|-------------||
|-----------6---------3-1-3---3-|-------------||


   Outro
    G7                                                        F#G7
    S S S S S S S S S S S S S S S S   S S S S S S S S S S S S S S S S   9x
||----------------------------------|-----------------------------------||
||o-3-3-3-3-x-x-3-x-x-x-3-x-x-3-x-x-|-3-3-3-3-x-x-3-x-x-x-3-x-2s3-x-x--o||
||--4-4-4-4-x-x-4-x-x-x-4-x-x-4-x-x-|-4-4-4-4-x-x-4-x-x-x-4-x-3s4-x-x---||
||--3-3-3-3-x-x-3-x-x-x-3-x-x-3-x-x-|-3-3-3-3-x-x-3-x-x-x-3-x-2s3-x-x---||
||o---------------------------------|----------------------------------o||
||----------------------------------|-----------------------------------||


  S S S S S S S S S S S S S S S S   S S S S S S S S S S S S S S S S
|---------------------------------|---------------------------------|
|-3-3-3-3-x-x-3-x-x-x-3-x-x-3-x-x-|-3-3-3-3-x-x-3-x-x-x-3-x-x-3-x-x-|
|-4-4-4-4-x-x-4-x-x-x-4-x-x-4-x-x-|-4-4-4-4-x-x-4-x-x-x-4-x-x-4-x-x-|
|-3-3-3-3-x-x-3-x-x-x-3-x-x-3-x-x-|-3-3-3-3-x-x-3-x-x-x-3-x-x-3-x-x-|
|---------------------------------|---------------------------------|
|---------------------------------|---------------------------------|


                                                            F#G7
  S S S S S S S S S S S S S S S S   S S S S S S S S S S S S S S S S
|---------------------------------|---------------------------------|
|-3-3-3-3-x-x-3-x-x-x-3-x-x-3-x-x-|-3-3-3-3-x-x-3-x-x-x-3-x-2s3-x-x-|
|-4-4-4-4-x-x-4-x-x-x-4-x-x-4-x-x-|-4-4-4-4-x-x-4-x-x-x-4-x-3s4-x-x-|
|-3-3-3-3-x-x-3-x-x-x-3-x-x-3-x-x-|-3-3-3-3-x-x-3-x-x-x-3-x-2s3-x-x-|
|---------------------------------|---------------------------------|
|---------------------------------|---------------------------------|


  S S S S S S S S S S S S S S S S   S S S S S S S S S S S S S S S S
|---------------------------------|---------------------------------|
|-3-3-3-3-x-x-3-x-x-x-3-x-x-3-x-x-|-3-3-3-3-x-x-3-x-x-3-x-x-3-3-x-x-|
|-4-4-4-4-x-x-4-x-x-x-4-x-x-4-x-x-|-4-4-4-4-x-x-4-x-x-4-x-x-4-4-x-x-|
|-3-3-3-3-x-x-3-x-x-x-3-x-x-3-x-x-|-3-3-3-3-x-x-3-x-x-3-x-x-3-3-x-x-|
|---------------------------------|---------------------------------|
|---------------------------------|---------------------------------|


  S S S S S S S S S S S S S S S S   S S S S S S S S S S S S S S S S
|---------------------------------|---------------------------------|
|-3-x-x-x-x-x-x-x-x-x-x-x-x-x-x-x-|-x-x-x-x-x-x-x-x-x-x-x-x-x-x-x-x-|
|-4-x-x-x-x-x-x-x-x-x-x-x-x-x-x-x-|-x-x-x-x-x-x-x-x-x-x-x-x-x-x-x-x-|
|-3-x-x-x-x-x-x-x-x-x-x-x-x-x-x-x-|-x-x-x-x-x-x-x-x-x-x-x-x-x-x-x-x-|
|---------------------------------|---------------------------------|
|---------------------------------|---------------------------------|


  S S S S S S S S S S S S S S S S   S S S S S S S S S S S S S S S S
|---------------------------------|---------------------------------|
|-x-x-x-x-x-x-x-x-x-x-x-x-x-x-x-x-|-x-x-x-x-x-x-x-x-x-x-x-x-x-x-x-x-|
|-x-x-x-x-x-x-x-x-x-x-x-x-x-x-x-x-|-x-x-x-x-x-x-x-x-x-x-x-x-x-x-x-x-|
|-x-x-x-x-x-x-x-x-x-x-x-x-x-x-x-x-|-x-x-x-x-x-x-x-x-x-x-x-x-x-x-x-x-|
|---------------------------------|---------------------------------|
|---------------------------------|---------------------------------|


  G
  S S e e S S +S  S S S S S S S   S S e e S S +S  S S S S S S S
|-x-x-3-3-x-3-(3)-3-3-x-x-3-x-x-|-x-x-3-3-x-3-(3)-3-3-x-x-3-x-x-|
|-x-x-3-3-x-3-(3)-3-3-x-x-3-x-x-|-x-x-3-3-x-3-(3)-3-3-x-x-3-x-x-|
|-x-x-4-4-x-4-(4)-4-4-x-x-4-x-x-|-x-x-4-4-x-4-(4)-4-4-x-x-4-x-x-|
|-x-x-5-5-x-5-(5)-5-5-x-x-5-x-x-|-x-x-5-5-x-5-(5)-5-5-x-x-5-x-x-|
|-------------------------------|-------------------------------|
|-------------------------------|-------------------------------|


  C
  S S  e  e S  S  +S   S  S S S  S S S   S S  e  e S  S  +S   S  S S S  S S S
|-x-x--8--8-x--8--(8)--8--8-x-x--8-x-x-|-x-x--8--8-x--8--(8)--8--8-x-x--8-x-x-|
|-x-x--8--8-x--8--(8)--8--8-x-x--8-x-x-|-x-x--8--8-x--8--(8)--8--8-x-x--8-x-x-|
|-x-x--9--9-x--9--(9)--9--9-x-x--9-x-x-|-x-x--9--9-x--9--(9)--9--9-x-x--9-x-x-|
|-x-x-10-10-x-10-(10)-10-10-x-x-10-x-x-|-x-x-10-10-x-10-(10)-10-10-x-x-10-x-x-|
|--------------------------------------|--------------------------------------|
|--------------------------------------|--------------------------------------|


  A                               N.C.
  S S e e S S +S  S S S S S S S   e E Q  H      Wx6
|-x-x-5-5-x-5-(5)-5-5-x-x-5-x-x-|-------------|--------*|
|-x-x-5-5-x-5-(5)-5-5-x-x-5-x-x-|-------------|--------*|
|-x-x-6-6-x-6-(6)-6-6-x-x-6-x-x-|-------------|--------*|
|-x-x-7-7-x-7-(7)-7-7-x-x-7-x-x-|-------------|--------*|
|-------------------------------|-5-----------|--------*|
|-------------------------------|-------------|--------*|


Duration Legend
---------------
W - whole; H - half; Q - quarter; E - 8th; S - 16th; T - 32nd; X - 64th; a - acciaccatura
+ - note tied to previous; . - note dotted; .. - note double dotted
Uncapitalized letters represent notes that are staccato (1/2 duration)
Irregular groupings are notated above the duration line
Duration letters will always appear directly above the note/fret number it represents the
duration for.  Duration letters with no fret number below them represent rests.  Multi-
bar rests are notated in the form Wxn, where n is the number of bars to rest for.  Low
melody durations appear below the staff

Tablature Legend
----------------
 h   - hammer-on
 p   - pull-off
 b   - bend
 pb  - pre-bend
 r   - bend release (if no number after the r, then release immediately)
 /\  - slide into or out of (from/to "nowhere")
 s   - legato slide
 S   - shift slide
  - natural harmonic
[n]  - artificial harmonic
n(n) - tapped harmonic
 ~   - vibrato
 tr  - trill
 T   - tap
 TP  - trem. picking
 PM  - palm muting
\n/  - tremolo bar dip; n = amount to dip
 \n  - tremolo bar down
 n/  - tremolo bar up
/n\  - tremolo bar inverted dip
 =   - hold bend; also acts as connecting device for hammers/pulls
 <>  - volume swell (louder/softer)
 x   - on rhythm slash represents muted slash
 o   - on rhythm slash represents single note slash

Misc Legend
-----------
 |  - bar
||  - double bar
||o - repeat start
o|| - repeat end
*|  - double bar (ending)
 :  - bar (freetime)
 $  - Segno
 &  - Coda
Tempo markers -  = BPM(8/16=s8/s16), where s8 = swing 8ths, s16 = swing 16ths

            
            
Suggest correction
Creating personal tab
Creating personal tab
You can edit any tab online and save it as your Personal.

You can edit, replace or remove any tab part or add personal notes – all changes will be seen only by you.

Personal tabs can be accessed anytime from any device, even offline.
Learn more »
Give kudos to tab author, rate the tab!
1 2 3 4 5
comments
print report bad tab
guest
You may want to rate the tab now too:
select rating
Wanna post a correction for this tab? Suggest correction