Oops, an error
Loading. Please wait.

Baby bass

by Prince
214 views 3 this week
no commentswrite comment
1 2 3 4 5
3 more votes to show rating
add to favorites
×
Save as Personal and add changes to this tab that will be seen only by you. Learn more ›
×
You can save this tab as Personal to edit and correct it or add notes. All changes will be seen only by you. Learn more »
launch autoscroll
font size
0
reset
guitar tuner
edit
Autoscroll
slow
fast
+/-
esc
set tempo
stop
Author
                                       Baby
                                      Prince

Bass                                                                Prince 

As played by Prince

Intro                                             ___
                                                 | 3 |
G|-----------------|-----------------|-----------------|-----------------|
D|-----------------|-----------------|-----------------|-----------------|
A|-----------------|-4---------------|-----------------|-----------------|
E|-5---------------|-----------------|-2---------2-2-2-|-2---------------|
   W                 W                 H.        E E E   W

G|-----------------|-----------------|-----------------|-----------------|
D|-----------------|-----------------|-----------------|-----------------|
A|-2---------------|-4---------------|-5-------4-------|-2-------1-------|
E|-----------------|-----------------|-----------------|-----------------|
   W                 W                 H       H         H       H

G|-----------------|-----------------|-----------------|-----------------|
D|-----------------|-----------------|-----------------|-----------------|
A|(1)--------------|(1)--------------|(1)--------------|(1)--------------|
E|-----------------|-----------------|-----------------|-----------------|
   W                 W                 W                 W

Verse 1

G|-----------------|-----------------|-----------------|-----------------|
D|---------7-------|-----------------|---------4---4-2-|---------4-------|
A|-----------------|-4---------------|-----------------|-----------------|
E|-5-----5---------|-----------------|-2---------------|-2-----2---------|
   Q.    E H         W                 H       Q   E E   Q.    E H
                ___
               | 3 |
G|---------2-----2---|-----------------|-----------------|-----------------|
D|-----------------4-|-----------------|-----------------|-----------------|
A|-2-----2-----------|-----------------|-----------------|-----------------|
E|-------------------|-0-----0-0-------|-5---------------|-----------------|
   Q.    E Q.  S S S   Q.    E H         H       H         W

G|-----------------|---------6-------|-----------------|-----------------|
D|---------7-------|-----------------|---------4-----2-|---------4-------|
A|-----------------|-4---------------|-----------------|-----------------|
E|-5---------------|-----------------|-2---------------|-2-----2---------|
   H       H         H       H         H       Q.    E   Q.    E H
                ___
               | 3 |
G|---------2-----2---|---------9-------|-----------------|-----------------|
D|-----------------4-|-----------------|---------7-------|-----------------|
A|-2-----2-----------|-----------------|-----------------|-----------------|
E|-------------------|-0---0-----------|-5---------------|-----------------|
   Q.    E Q.  S S S   Q   Q   H         H       Q   Q     W

Chorus 1
                ___
               | 3 |
G|---------4-----2---|-----------------|-----------------|-----------------|
D|-----------------4-|---------2-------|---------7-------|---------7---7---|
A|-2-----2-----------|-----------------|-----------------|-----------------|
E|-------------------|-0---0-----------|-5---------------|-5---------------|
   Q.    E Q.  S S S   Q   Q   H         H       H         H       Q   Q
                ___
               | 3 |
G|---------4-----2---|-----------------|-----------------|-----------------|
D|-----------------4-|---------2-------|-----------------|---------7---7---|
A|-2-----2-----------|-----------------|-----------------|-----------------|
E|-------------------|-0-----0---------|-5-----5-5-5-----|-5---5-----------|
   Q.    E Q.  S S S   Q.    E H         Q.    E E E Q     Q   Q   Q   Q
                ___
               | 3 |
G|---------4-----2---|-----------------|-----------------|-----------------|
D|-----------------4-|-----------------|---------4-------|---------4---4---|
A|-2-----2-----------|-4-----4-4---4---|-----------------|-----------------|
E|-------------------|-----------------|-2-----2---------|-2-----2---------|
   Q.    E Q.  S S S   Q.    E Q   Q     Q.    E H         Q.    E Q   Q

G|---------4---4---|-----------------|-----------------|-----------------|
D|-----------------|-----------------|-----------------|---------4-------|
A|-2-----2---------|-4-----4-4---4-4-|-----------------|-----4-------4---|
E|-----------------|-----------------|-2-----2-----2---|(2)--------------|
   Q.    E Q   Q     Q.    E Q   E E   E Q   E Q   Q     Q   Q   Q   Q

G|-----------------|-----------------|-----------------|-----------------|
D|-----------------|-----------------|-----------------|-----------------|
A|-----------------|-----------------|-2-------4-------|-5-------7-------|
E|-2-----2-----2---|(2)--------------|-----------------|-----------------|
   E Q   E Q   Q     W                 H       H         H       H

G|-----------------|-----------------|-----------------|--------|
D|-----------------|-----------------|-----------------|--------|
A|(7)--------------|(7)--------------|(7)--------------|(7)-----|
E|-----------------|-----------------|-----------------|--------|
   W                 W                 W                 H

Verse 2
                ___
               | 3 |
G|---------2-----2---|---------6-------|-----------------|-----------------|
D|-----------------4-|-----------------|--------/4-------|-----------------|
A|-0-----------------|-4---------------|-----------------|-----------------|
E|-------------------|-----------------|-2---------------|-2---2---2-------|
   H       Q.  S S S   H       H         H       H         Q   Q   H
                ___
               | 3 |
G|---------4-----2---|-----------------|-----------------|-----------------|
D|-----------------4-|---------2-------|---------7-------|-----------------|
A|-2-----2-----------|-----------------|-----------------|-----------------|
E|-------------------|-0-----0---------|-5---------------|-----------------|
   Q.    E Q.  S S S   Q.    E H         H       E E Q     W
                ___
               | 3 |
G|---------2-----2---|---------6-------|-----------------|-----------------|
D|-----------------4-|-----------------|--------/4-----2-|---------2-------|
A|-0-----------------|-4-----------4-4-|-----------------|-----------------|
E|-------------------|-----------------|-2---------------|-2-----------2---|
   H       Q.  S S S   H       H         H       Q.    E   H       Q   Q
                ___
               | 3 |
G|---------4-----2---|---------9-------|-----------------|-----------------|
D|-----------------4-|-----------------|---------7-------|-----------------|
A|-2-----2-----------|-----------------|-----------------|-----------------|
E|-------------------|-0---0-----------|-5---------------|-----------------|
   Q.    E Q.  S S S   Q   Q   H         H       E E Q     W

Chorus 2
                ___
               | 3 |
G|---------4-----2---|-----------------|-----------------|-----------------|
D|-----------------4-|---------2-------|---------7-------|---------7---7---|
A|-2-----2-----------|-----------------|-----------------|-----------------|
E|-------------------|-0---------------|-5---------------|-5---------------|
   Q.    E Q.  S S S   H       H         H       H         H       Q   Q
                ___
               | 3 |
G|---------4-----2---|-----------------|-----------------|-----------------|
D|-----------------4-|---------2-------|-----------------|---------7---7---|
A|-2-----2-----------|-----------------|-----------------|-----------------|
E|-------------------|-0---------------|-5-----5-5-5-----|-5---------------|
   Q.    E Q.  S S S   H       H         Q.    E E E Q     H       Q   Q
                ___
               | 3 |
G|---------4-----2---|-----------------|-----------------|-----------------|
D|-----------------4-|-----------------|---------4-------|---------4/------|
A|-2-----2-----------|-4-----4-4---4---|-----------------|-----------------|
E|-------------------|-----------------|-2-----2---------|-2-----2---------|
   Q.    E Q.  S S S   Q.    E Q   Q     Q.    E H         Q.    E H    

G|---------4-------|---------7-------|---------9-------|(9)--------------|
D|-----------------|-----------------|-----------------|-----------------|
A|-2-----2---------|-5-----5-------5-|-7-----7---------|-----------------|
E|-----------------|-----------------|-----------------|-----------------|
   Q.    E H         Q.    E Q.    E   Q.    E H         W

G|-----------------|-----------------|-----------------|---------6-------|
D|-----------------|---------2-------|---------7-------|-----------------|
A|-----------------|-----------------|---------------7-|-4-----4-------4-|
E|-0-----0-0-------|-0-----0---------|-5-----5---------|-----------------|
   Q.    E H         Q.    E H         Q.    E Q.    E   Q.    E Q.    E
                                                                      ___
                                                                     | 3 |
G|-----------------|-----------------|---------7-------|---------6-----4---|
D|--------/4-------|--------/4-----2-|-----------------|-----------------6-|
A|-----------------|-----------------|-5-----5---------|-4-----4-----------|
E|-2-----2---------|-2-2-2-----------|-----------------|-------------------|
   Q.    E H         E E Q   Q.    E   Q.    E H         Q.    E Q.  S S S
                ___
               | 3 |
G|---------2-----2---|-----------------|-----------------|---------6-------|
D|-----------------4-|-2---------------|---------7-------|-----------------|
A|-2-----2-----------|-----------------|-----------------|-4---4---------4-|
E|-------------------|-----------------|-5---5---------5-|-----------------|
   Q.    E Q.  S S S   W                 Q   Q   Q.    E   Q   Q   Q.    E

G|-----------------|-----------------|
D|-----------------|-----------------|
A|-----------------|-----------------|
E|-2---------------|(2)--------------|
   W                 W

Outro

4 Bars Rest

G|-----------------|-----------------|-----------------|-----------------|
D|-----------------|-----------------|-----------------|-----------------|
A|-----------------|-----------------|-----------------|-----------------|
E|-3-----------3---|-3-------3-------|-5---0---5---0---|-5---0---5---0---|
   H.          Q     H       H         Q   Q   Q   Q     Q   Q   Q   Q

G|-----------------|-----------------|-----------------||
D|-----------------|-----------------|-----------------||
A|-----------------|-----------------|-----------------||
E|-5---------------|(5)--------------|-5---------------||
   W                 W                 Q   Q   H


Key to rhythm notations:

W - Whole Note/Semi-Brieve
H - Half Note/Minim
Q - Quarter Note/Crotchet       Q. - Dotted Quarter Note
E - Eight Note/Quaver           E. - Dotted Eight Note
S - Sixteenth Note/Semi-Quaver  S. - Dotted Sixteenth Note
Suggest correction
Creating personal tab
Creating personal tab
You can edit any tab online and save it as your Personal.

You can edit, replace or remove any tab part or add personal notes – all changes will be seen only by you.

Personal tabs can be accessed anytime from any device, even offline.
Learn more »
Give kudos to tab author, rate the tab!
1 2 3 4 5
comments
print report bad tab
guest
You may want to rate the tab now too:
select rating
Wanna post a correction for this tab? Suggest correction