Oops, an error
Loading. Please wait.

Baby Im A Star bass

by Prince
214 views 3 this week
1 commentread comment
1 2 3 4 5
3 more votes to show rating
add to favorites
×
Save as Personal and add changes to this tab that will be seen only by you. Learn more ›
×
You can save this tab as Personal to edit and correct it or add notes. All changes will be seen only by you. Learn more »
launch autoscroll
font size
0
reset
guitar tuner
edit
Autoscroll
slow
fast
+/-
esc
set tempo
stop
Author
Difficulty
[Intro]

G|-----------------|-----------------|-------------------|-------------------|
D|-----x-------x---|-----x-x-----x---|---------------x---|-----x---------x---|
A|-----------------|-----------------|-------------------|-------------------|
E|-x-----x-x-x---x-|-x-x-----x-x---x-|---------x-x-x---x-|-x-x---x-x-x-x---x-|
   E E E E E.S E E   E E E E E.S E E   H       S E S E E   E E E E S E S E E

G|-----------------|-----------------|-----------------|-----------------|
D|-----x-------x---|-----x-------x---|-----x-------x---|-----------------|
A|-----------------|-----------------|-----------------|-----4-0-----4-0-|
E|-x-----x-x-x---x-|-x-----x-x-x---x-|-x-----x-x-x---x-|-x-------x-------|
   E E E E E.S E E   E E E E E.S E E   E E E E E.S E E   E E E E E E E E

G|-----------------|-----------------|-----------------|-----------------|
D|-----------7---7-|---7---7---7---7-|-----------7---7-|---7---7---7---7-|
A|-----------------|-----------------|-----------------|-----------------|
E|-3--5--5-5---5---|-5---5---5---5---|-3--5--5-5---5---|-5---5---5---5---|
   E. E. E E E E E   E E E E E E E E   E. E. E E E E E   E E E E E E E E 

G|-----------------|-----------------|-----------------|-----------------|---------|
D|-----------7---7-|-----------7---7-|-----------7---7-|---7---7---7---7-|---------|
A|-----------------|-----------------|-----------------|-----------------|-----4-5-|
E|-3--5--5-5---5---|-3--5--5-5---5---|-3--5--5-5---5---|-5---5---5---5---|-5-7-----|
   E. E. E E E E E   E. E. E E E E E   E. E. E E E E E   E E E E E E E E   E E E E

G|---7---7---7---7-|---7---7---7---7-|-----------------|-----------------|
D|-----------------|-----------------|---7---7---7---7-|---7---7---7---7-|
A|-5---5---5---5---|-5---5---5---5---|-----------------|-----------------| x2
E|-----------------|-----------------|-5---5---5---5---|-5---5---5---5---|
   E E E E E E E E   E E E E E E E E   E E E E E E E E   E E E E E E E E

G|-----------------|-----------------|
D|-----------7---7-|---7---7---7---7-|
A|-----------------|-----------------|
E|-3--5--5-5---5---|-5---5---5---5---|
   E. E. E E E E E   E E E E E E E E

[Verse 1]

G|---7---7-----7---|---7---7---7---7-|-----------------|-----------------|
D|-----------------|-----------------|---7---7---7---7-|-----7-------7---|
A|-5---5---5-x---5-|-5---5---5---5---|-----------------|-----------------|
E|-----------------|-----------------|-5---5---5---5---|-5-x---5-5-x---5-|
   E E E E E.S E E   E E E E E E E E   E E E E E E E E   E.S E E E.S E E

G|---7---7---7---7-|---7---7-----7---|-----------------|-----------------|
D|-----------------|-----------------|---7---7---7---7-|-----7-------7---|
A|-5---5---5---5---|-5---5---5-x---5-|-----------------|-----------------|
E|-----------------|-----------------|-5---5---5---5---|-5-x---5-5-x---5-|
   E E E E E E E E   E E E E E.S E E   E E E E E E E E   E.S E E E.S E E

G|---7---7-----7---|---7---7---7---7-|-----------------|-----------------|
D|-----------------|-----------------|---7---7---7---7-|-----7-------7---|
A|-5---5---5-x---5-|-5---5---5---5---|-----------------|-----------------|
E|-----------------|-----------------|-5---5---5---5---|-5-x---5-5-x---5-|
   E E E E E.S E E   E E E E E E E E   E E E E E E E E   E.S E E E.S E E

G|---7---7---7---7-|---7---7-----7---|-----------------|-----------------|
D|-----------------|-----------------|---7---7---7---7-|-----7-----------|
A|-5---5---5---5---|-5---5---5-x---5-|-----------------|-------------4-5-|
E|-----------------|-----------------|-5---5---5---5---|-5-x---5-5-7-----|
   E E E E E E E E   E E E E E.S E E   E E E E E E E E   E.S E E E E E E

[Chorus 1]

G|---7---7-----7---|---7---7---7---7-|-----------------|-----------------|
D|-----------------|-----------------|---7---7---7---7-|-----7-------7---|
A|-5---5---5-x---5-|-5---5---5---5---|-----------------|-----------------| x2
E|-----------------|-----------------|-5---5---5---5---|-5-x---5-5-x---5-|
   E E E E E.S E E   E E E E E E E E   E E E E E E E E   E.S E E E.S E E

G|-----------------|-----------------|
D|-----------7---7-|---7---7---7---7-|
A|-----------------|-----------------|
E|-3--5--5-5---5---|-5---5---5---5---|
   E. E. E E E E E   E E E E E E E E

[Verse 2]

G|---7---7-----7---|---7---7---7---7-|-----------------|-----------------|
D|-----------------|-----------------|---7---7---7---7-|-----7-------7---|
A|-5---5---5-x---5-|-5---5---5---5---|-----------------|-----------------|
E|-----------------|-----------------|-5---5---5---5---|-5-x---5-5-x---5-|
   E E E E E.S E E   E E E E E E E E   E E E E E E E E   E.S E E E.S E E

G|---7---7---7---7-|---7---7-----7---|-----------------|-----------------|
D|-----------------|-----------------|---7---7---7---7-|-----7-------7---|
A|-5---5---5---5---|-5---5---5-x---5-|-----------------|-----------------|
E|-----------------|-----------------|-5---5---5---5---|-5-x---5-5-x---5-|
   E E E E E E E E   E E E E E.S E E   E E E E E E E E   E.S E E E.S E E

G|---7---7-----7---|---7---7---7---7-|-----------------|-----------------|
D|-----------------|-----------------|---7---7---7---7-|-----7-------7---|
A|-5---5---5-x---5-|-5---5---5---5---|-----------------|-----------------|
E|-----------------|-----------------|-5---5---5---5---|-5-x---5-5-x---5-|
   E E E E E.S E E   E E E E E E E E   E E E E E E E E   E.S E E E.S E E

G|---7---7---7---7-|---7---7-----7---|-----------------|-----------------|
D|-----------------|-----------------|---7---7---7---7-|-----7-----------|
A|-5---5---5---5---|-5---5---5-x---5-|-----------------|-------------4-5-|
E|-----------------|-----------------|-5---5---5---5---|-5-x---5-5-7-----|
   E E E E E E E E   E E E E E.S E E   E E E E E E E E   E.S E E E E E E

[Chorus 2]

G|---7---7-----7---|---7---7---7---7-|-----------------|-----------------|
D|-----------------|-----------------|---7---7---7---7-|-----7-------7---|
A|-5---5---5-x---5-|-5---5---5---5---|-----------------|-----------------| x2
E|-----------------|-----------------|-5---5---5---5---|-5-x---5-5-x---5-|
   E E E E E.S E E   E E E E E E E E   E E E E E E E E   E.S E E E.S E E

G|-----------------|-----------------|
D|-----------7---7-|---7---7---7---7-|
A|-----------------|-----------------|
E|-3--5--5-5---5---|-5---5---5---5---|
   E. E. E E E E E   E E E E E E E E

[Bridge]

G|---5---5---5---5-|---4---4---4---4-|-----------------|-----------------|
D|-----------------|-----------------|---7---7---7---7-|---5---5---5---5-|
A|-3---3---3---3---|-2---2---2---2---|-----------------|-----------------|
E|-----------------|-----------------|-5---5---5---5---|-3---3---3---3---|
   E E E E E E E E   E E E E E E E E   E E E E E E E E   E E E E E E E E

G|-----------------|---4---4---4---4-|---5---5---5---5-|-----------------|
D|---7---7---7---7-|-----------------|-----------------|---7---7---7---7-|
A|-----------------|-2---2---2---2---|-3---3---3---3---|-----------------|
E|-5---5---5---5---|-----------------|-----------------|-5---5---5---5---|
   E E E E E E E E   E E E E E E E E   E E E E E E E E   E E E E E E E E

G|-----------------|-----------------|
D|---7---7---7---7-|---7---7---------|
A|-----------------|-------------4-5-|
E|-5---5---5---5---|-5---5---5-7-----|
   E E E E E E E E   E E E E E E E E

[Chorus 3]

G|---7---7---7---7-|---7---7---7---7-|-----------------|-----------------|
D|-----------------|-----------------|---7---7-----7---|-----7-------7---|
A|-5---5---5---5---|-5---5---5---5---|-----------------|-----------------| x2
E|-----------------|-----------------|-5---5---5-x---5-|-5-x---5-5-x---5-|
   E E E E E E E E   E E E E E E E E   E E E E E.S E E   E.S E E E.S E E

G|---7---7---7---7-|---7---7---7---7-|-----------------|-----------------|
D|-----------------|-----------------|---7---7---7---7-|---7---7---------|
A|-5---5---5---5---|-5---5---5---5---|-----------------|-------------4-5-| x2
E|-----------------|-----------------|-5---5---5---5---|-5---5---5-7-----|
   E E E E E E E E   E E E E E E E E   E E E E E E E E   E E E E E E E E

G|-----------------|-----------------|-----------------|
D|-----------7---7-|---7---7---7---7-|-----------------|
A|-----------------|-----------------|-----------------|
E|-3--5--5-5---5---|-5---5---5---5---|-----------------|
   E. E. E E E E E   E E E E E E E E   W

[Outro]

G|---7---7---7---7-|---7---7---7---7-|-----------------|-----------------|
D|-----------------|-----------------|-------7---7---7-|-----------------|
A|-5---5---5---5---|-5---5---5---5---|-----------------|-----------------|
E|-----------------|-----------------|-5---5---5---5---|-3--5--5-3--5--5-|
   E E E E E E E E   E E E E E E E E   Q   E E E E E E   E. E. E E. E. E

G|-----------------|-----------------|-----------------|
D|-----------7---7-|---7---7---7---7-|-----------------|
A|-----------------|-----------------|-5---------------|
E|-3--5--5-5---5---|-5---5---5---5---|-----------------|
   E. E. E E E E E   E E E E E E E E   E E H.

G|---7---7---7---7-|---7---7---7---7-|-----------------|-----------------|
D|-----------------|-----------------|---7---7---7---7-|-----------------|
A|-5---5---5---5---|-5---5---5---5---|-----------------|-----------------|
E|-----------------|-----------------|-5---5---5---5---|-3--5--5-3--5--5-|
   E E E E E E E E   E E E E E E E E   E E E E E E E E   E. E. E E. E. E

G|-----------------|-----------------|-----------------|
D|-----------7---7-|---7---7---7---7-|-----------------|
A|-----------------|-----------------|-5---------------|
E|-3--5--5-5---5---|-5---5---5---5---|-----------------|
   E. E. E E E E E   E E E E E E E E   E E H.

G|---7---7---7---7-|---7---7---7---7-|-----------------|-----------------|
D|-----------------|-----------------|---7---7---7---7-|---7---7---------|
A|-5---5---5---5---|-5---5---5---5---|-----------------|-------------4-5-|
E|-----------------|-----------------|-5---5---5---5---|-5---5---5-7-----|
   E E E E E E E E   E E E E E E E E   E E E E E E E E   E E E E E E E E

G|---7---7---7---7-|---7---7---7---7-|-----------------|-----------------|
D|-----------------|-----------------|---7---7---7---7-|-----------------|
A|-5---5---5---5---|-5---5---5---5---|-----------------|-----------------|
E|-----------------|-----------------|-5---5---5---5---|-3--5--5-3--5--5-|
   E E E E E E E E   E E E E E E E E   E E E E E E E E   E. E. E E. E. E

G|-----------------|-----------------|-----------------|-----------------|
D|-----------7---7-|---7---7---7---7-|-----------7---7-|---7---7---7---7-|
A|-----------------|-----------------|-----------------|-----------------|
E|-3--5--5-5---5---|-5---5---5---5---|-3--5--5-5---5---|-5---5---5---5---|
   E. E. E E E E E   E E E E E E E E   E. E. E E E E E   E E E E E E E E 

G|-----------------|-----------------|-----------------|-----------------|
D|-----------7---7-|-----------7---7-|-----------------|-----------7---7-|
A|-----------------|-----------------|-----------------|-----------------|
E|-3--5--5-5---5---|-3--5--5-5---5---|-3--5--5-3--5--5-|-3--5--5-5---5---|
   E. E. E E E E E   E E E E E E E E   E. E. E E. E. E   E. E. E E E E E 

G|-----------------||
D|-----------------||
A|-5---------------||
E|-----------------||
   E E H.

            
            
Suggest correction
Creating personal tab
Creating personal tab
You can edit any tab online and save it as your Personal.

You can edit, replace or remove any tab part or add personal notes – all changes will be seen only by you.

Personal tabs can be accessed anytime from any device, even offline.
Learn more »
Give kudos to tab author, rate the tab!
1 2 3 4 5
comments
print report bad tab
1 comment total.
0 reply
LBassy 39 Feb 01, 2017 07:09 PM

You are missing some repeats in the outro. Otherwise it looks great.

guest
You may want to rate the tab now too:
select rating
Wanna post a correction for this tab? Suggest correction