Oops, an error
Loading. Please wait.

Baby Im A Star chords

by Prince
484 views 21 this week
no commentswrite comment
1 2 3 4 5
3 more votes to show rating
add to favorites
×
Save as Personal and add changes to this tab that will be seen only by you. Learn more ›
×
You can save this tab as Personal to edit and correct it or add notes. All changes will be seen only by you. Learn more »
launch autoscroll
font size
0
reset
transpose
0
reset
simplify chords
display chords
guitar tuner
edit
Autoscroll
slow
fast
+/-
esc
set tempo
stop
Author
Difficulty
About this tab version
Chords with sample keyboard parts arranged for guitar. Was this info helpful? Yes No
Strumming
There is no strumming pattern for this song yet. and get +5 IQ
[Intro 1]

   G  D/G A          G  D/G A          G  D/G A          G  D/G A          G  D/G A        
E|-----------------|-----------------|-----------------|-----------------|-----------------|
B|-3--7---5--------|-3--7---5--------|-3--7---5--------|-3--7---5--------|-3--7---5--------|
G|-4--7---6--------|-4--7---6--------|-4--7---6--------|-4--7---6--------|-4--7---6--------|
D|-5--7---7--------|-5--7---7--------|-5--7---7--------|-5--7---7--------|-5--7---7--------|
A|--------0--------|--------0--------|--------0--------|--------0--------|--------0--------|
E|-3--3------------|-3--3------------|-3--3------------|-3--3------------|-3--3------------|

[Intro 2]

   Dsus2 C/D Bm/D Dsus2                 Am7               Am7 G/A Am7 G/A
E|-0------3--2----0-|---0-------------|-----------------|-----------------|
B|-3------5--3----3-|---3-------------|-5---------------|-5--3----5--3----|
G|-2------5--4----2-|---2-------------|-5---------------|-5--4----5--4----| x2
D|-0------0--0----0-|---0-------------|-5---------------|-5--5----5--5----|
A|------------------|-----------------|-0---------------|-0--0----0--0----|
E|------------------|-----------------|-----------------|-----------------|

   G  D/G A
E|-----------------|-----------------|
B|-3--7---5--------|-----------------|
G|-4--7---6--------|-----------------|
D|-5--7---7--------|-----------------|
A|--------0--------|-----------------|
E|-3--3------------|-----------------|

[Verse 1]
Dsus2 C/D    Bm/D Dsus2
Hey     look me   over
Am7                       Am7 G/A Am7 G/A
Tell me  do U like what U see?
Dsus2 C/D     Bm/D   Dsus2
Hey   I ain't got no money
               Am7                 Am7 G/A Am7 G/A
But honey, I'm rich on personality
Dsus2 C/D  Bm/D   Dsus2
Hey,     check it all out
Am7                         Am7 G/A Am7 G/A
Baby, I know what it's all about
  Dsus2             C/D 
Before the night is through
Bm/D   Dsus2
U will see my point of view
Am7                         Am7 G/A 
Even if I have 2 scream and shout

[Chorus 1]
Am7   G/A   Dsus2 C/D Bm/D Dsus2
Baby, I'm a star
Am7                   Am7  G/A   Am7 G/A
Might not know it now baby but I are  I'm a 
Dsus2 C/D Bm/D Dsus2
Star
Am7                 Am7    G/A       Am7 G/A
I don't want 2 stop till I reach the top
 G  D/G     A
(We are all a star!)

[Verse 2]
Dsus2 C/D Bm/D   Dsus2
Hey       take a listen
Am7                      Am7 G/A Am7 G/A
Tell me do U like what U hear?
   Dsus2             C/D Bm/D   Dsus2
If it don't turn U on
Dsus2
Just say the word and I'm gone
             Am7                                Am7 G/A Am7 G/A
But honey, I know ain't nuttin' wrong with your ears 
Dsus2 C/D  Bm/D   Dsus2
Hey,     check it all out
Am7                                   Am7 G/A Am7 G/A
Better look now or it just might be 2 late
Dsus2                   C/D  Bm/D
My luck's gonna change 2night
        Dsus2
There's gotta be a better life
       Am7                                 Am7  G/A
Take a picture sweetie, I ain't got time 2 wait

[Chorus 2]
Am7   G/A   Dsus2 C/D Bm/D Dsus2
Baby, I'm a star
Am7                   Am7  G/A   Am7 G/A
Might not know it now baby but I are  I'm a 
Dsus2 C/D Bm/D Dsus2
Star
Am7                 Am7    G/A       Am7 G/A
I don't want 2 stop till I reach the top
 G  D/G     A
(We are all a star!)

[Bridge]
C                            Bm7
Everybody say nothin' come 2 easy
           A                            G
But when U got it, baby, nothin' come 2 hard
     A
U'll see what I'm all about
Bsus2       Bm         Bm7   Bm
If I  gotta scream and shout
C  Cadd9 C6 Cmaj7
Ba-by    Ba-by 
A  Asus4 A  Aadd9
Ba-by    Ba-by
A
Yeah, yeah, yeah, yeah, yeah, yeah

[Outro]

Dsus2 C/D Bm/D Dsus2 Am7 Am7 G/A Am7 G/A x2
G D/G A

     Dm G/D Dm7 G/D Dm7   G/D Dm7 G/D Dm7 Dm      Am7              Am7 G/A Am7 G/A
E|---5--3---1---3---1---|-3---1---3---1---1-----|---------3-------|-----------------|
B|---6--3---1---3---1---|-4---1---4---1---3-----|-5-----5-5--5----|-5--3----5--3----|
G|---7--4---2---4---2---|-4---2---4---2---2-----|-5-----5-5--5----|-5--4----5--4----| x2
D|---0--0---0---0---0---|-0---0---0---0---0-----|-5-----5----5----|-5--5----5--5----|
A|----------------------|-----------------------|-0-----0-0--0----|-0--0----0--0----|
E|----------------------|-----------------------|-----------------|-----------------|

   G  D/G A
E|-----------------|-----------------|-----------------|
B|-3--7---5--------|-----------------|-----------------|
G|-4--7---6--------|-----------------|-----------------|
D|-5--7---7--------|-----------------|-----------------|
A|--------0--------|-----------------|-----------------|
E|-3--3------------|-----------------|-----------------|

Dm G/D Dm7 G/D Dm7 G/D Dm7 G/D Dm7 Dm Am7 Am7 G/A Am7 G/A x2
G D/G A Dsus2

Dm G/D Dm7 G/D Dm7 G/D Dm7 G/D Dm7 Dm Am7 Am7 G/A Am7 G/A x2
G D/G A Dsus2

Dm G/D Dm7 G/D Dm7 G/D Dm7 G/D Dm7 Dm Am7 Am7 G/A Am7 G/A x2
G D/G A x6 
Dsus2

            
            
Suggest correction
Creating personal tab
Creating personal tab
You can edit any tab online and save it as your Personal.

You can edit, replace or remove any tab part or add personal notes – all changes will be seen only by you.

Personal tabs can be accessed anytime from any device, even offline.
Learn more »
Give kudos to tab author, rate the tab!
1 2 3 4 5
comments
print report bad tab
guest
You may want to rate the tab now too:
select rating
Wanna post a correction for this tab? Suggest correction