Oops, an error
Loading. Please wait.

Come Bass Tab

22 views 1 this week
no commentswrite comment
1 2 3 4 5
2 more votes to show rating
add to favorites
launch autoscroll
font size
0
reset
guitar tuner
Autoscroll
slow
fast
+/-
esc
set tempo
stop
Help us to improve Ultimate-Guitar.com Take our survey!
×
Author
Difficulty
intermediate
About this tab version
As recorded with rhythm notation. Was this info helpful? Yes No
                                        Come
                                       Prince  

Bass                                                                        Prince

As played by Prince

[Intro]
                                                                   |  3  |
G|-------------------|-------------------|-------------------|-------------------|
D|-------------------|-------------------|-------------------|-----13-13-13-13\--|
A|-------------------|-------------------|-------------------|-------------------|
E|-------------------|-------------------|-------------------|-------------------|
   W                   W                   W                   H E S  S  S  Q
                      ___                                          ___
                     | 3 |                                        | 3 |
G||--------10\8---6--6-----|-------10\8---------|-------10\8---6--6-----|-------10\8----------||
D||o-----8-------------8---|-----8--------------|-----8-------------8---|-----8--------------o||
A||o-6-9-----------------9-|-6-9----------------|-6-9-----------------9-|-6-9----------------o||
E||------------------------|--------------------|-----------------------|---------------------||
     E E E S  Q   E. S S S   E E E S  S Q   Q     E E E S  Q   E. S S S   E E E S  S Q   Q

[Verse 1]
                     | 3 |                                        | 3 |
G||--------10\8---6--6-----|-------10\8---------|-------10\8---6--6-----|-------10\8----------||
D||o-----8-------------8---|-----8--------------|-----8-------------8---|-----8--------------o||
A||o-6-9-----------------9-|-6-9----------------|-6-9-----------------9-|-6-9----------------o||
E||------------------------|--------------------|-----------------------|---------------------||
     E E E S  Q   E. S S S   E E E S  S Q   Q     E E E S  Q   E. S S S   E E E S  S Q   Q

[Chorus 1]
                     | 3 |                                        | 3 |
G||--------10\8---6--6-----|-------10\8---------|-------10\8---6--6-----|-------10\8----------||
D||o-----8-------------8---|-----8--------------|-----8-------------8---|-----8--------------o||
A||o-6-9-----------------9-|-6-9----------------|-6-9-----------------9-|-6-9----------------o||
E||------------------------|--------------------|-----------------------|---------------------||
     E E E S  Q   E. S S S   E E E S  S Q   Q     E E E S  Q   E. S S S   E E E S  S Q   Q

[Verse 2]
                   | 3 |                                        | 3 |
G|-------10\8---6--6-----|-------10\8---------|-------10\8---6--6-----|-------10\8---------|
D|-----8-------------8---|-----8--------------|-----8-------------8---|-----8--------------|
A|-6-9-----------------9-|-6-9----------------|-6-9-----------------9-|-6-9----------------|
E|-----------------------|--------------------|-----------------------|--------------------|
   E E E S  Q   E. S S S   E E E S  S Q   Q     E E E S  Q   E. S S S   E E E S  S Q   Q
                    ___ 
                   | 3 |
G|-------10\8---6--6-----|-------10\8---------|-----------------|--------------------|
D|-----8-------------8---|-----8--------------|-----------------|--------------------|
A|-6-9-----------------9-|-6-9----------------|-6\--------------|-6\1/13\6/13\6/13\6-|
E|-----------------------|--------------------|-----------------|--------------------|
   E E E S  Q   E. S S S   E E E S  S Q   Q     Q   Q   H         E E E  E E  E E  E

[Chorus 2]
                     | 3 |                                        | 3 |
G||--------10\8---6--6-----|-------10\8---------|-------10\8---6--6-----|-------10\8----------||
D||o-----8-------------8---|-----8--------------|-----8-------------8---|-----8--------------o||
A||o-6-9-----------------9-|-6-9----------------|-6-9-----------------9-|-6-9----------------o||
E||------------------------|--------------------|-----------------------|---------------------||
     E E E S  Q   E. S S S   E E E S  S Q   Q     E E E S  Q   E. S S S   E E E S  S Q   Q

[Break 1]                       ___
                               | 3 |
G|-----------------|---------------8-11-11-|-------10\8---6--6-----|-------10\8---------|
D|-----------------|-------------9---------|-----8-------------8---|-----8--------------|
A|-2---------------|-2---------9-----------|-6-9-----------------9-|-6-9----------------|
E|-----------------|-----------------------|-----------------------|--------------------|
   W                 Q   Q.    S S S E  E    E E E S  Q   E. S S S   E E E S  S Q   Q 
                    ___ 
                   | 3 |
G|-------10\8---6--6-----|-------10\8---------|-----------------|----10-----------|
D|-----8-------------8---|-----8--------------|-----------------|------11-8\------|
A|-6-9-----------------9-|-6-9----------------|-----------------|-----------------|
E|-----------------------|--------------------|-----------------|-----------------|
   E E E S  Q   E. S S S   E E E S  S Q   Q     W                 Q   E S E.E Q
                    ___ 
                   | 3 |
G|-------10\8---6--6-----|-------10\8-----8\--|
D|-----8-------------8---|-----8--------------|
A|-6-9-----------------9-|-6-9----------------|
E|-----------------------|--------------------|
   E E E S  Q   E. S S S   E E E S  S Q   Q

[Verse 3]
                   | 3 |                                        | 3 |
G|-------10\8---6--6-----|-------10\8---------|-------10\8---6--6-----|-------10\8---------|
D|-----8-------------8---|-----8--------------|-----8-------------8---|-----8--------------|
A|-6-9-----------------9-|-6-9----------------|-6-9-----------------9-|-6-9----------------|
E|-----------------------|--------------------|-----------------------|--------------------|
   E E E S  Q   E. S S S   E E E S  S Q   Q     E E E S  Q   E. S S S   E E E S  S Q   Q

                    ___                                          ___
                   | 3 |                                        | 3 |
G|-------10\8---6--6-----|-------10\8---------|-------10\8---6--6-----|----------9-10-11-10-|
D|-----8-------------8---|-----8--------------|-----8-------------8---|-----8-10------------|
A|-6-9-----------------9-|-6-9----------------|-6-9-----------------9-|-6-9-----------------|
E|-----------------------|--------------------|-----------------------|---------------------|
   E E E S  Q   E. S S S   E E E S  S Q   Q     E E E S  Q   E. S S S   E E E E  E E  E  E

G|-----------------|-----------------|-------------------|---------------7---|
D|-----------------|-------------7---|-------------------|-------------5-----|
A|-----------------|---------------7-|-------------------|-----------5-------|
E|-6-------6--6--6-|-5---------0-----|-4-------4--4--4-2-|-3-----------------|
   H       E. E. E   H       E E E E   H       E. E. S S   H       E S S Q

[Chorus 3]
                                                          | 3 |
G|-----------------|-------10\8---------|-------10\8---6--6-----|-------10\8---------|
D|-----------------|-----8--------------|-----8-------------8---|-----8--------------|
A|-----------------|-6-9----------------|-6-9-----------------9-|-6-9----------------|
E|-1\--------------|--------------------|-----------------------|--------------------|
   Q   Q   H         E E E S  S Q   Q     E E E S  Q   E. S S S   E E E S  S Q   Q
                    ___                                          ___
                   | 3 |                                        | 3 |
G|-------10\8---6--6-----|-------10\8---------|-------10\8---6--6-----|-------10\8---------|
D|-----8-------------8---|-----8--------------|-----8-------------8---|-----8--------------|
A|-6-9-----------------9-|-6-9----------------|-6-9-----------------9-|-6-9----------------|
E|-----------------------|--------------------|-----------------------|--------------------|
   E E E S  Q   E. S S S   E E E S  S Q   Q     E E E S  Q   E. S S S   E E E S  S Q   Q

G|-----------------|-------10\8---------|-*-----10\8---6--18-17-|-13---15-13-10-8-6-|
D|-----------------|-----8--------------|-----8-----------------|-------------------|
A|-6\------6-6-----|-6-9----------------|-6-9-------------------|-------------------|
E|-----------------|--------------------|-----------------------|-------------------|
   Q   Q   E E Q     E E E S  S Q   Q     E E E S  Q   E. E  E    Q.    S  E. S E.E
                    ___                                          ___
                   | 3 |                                        | 3 |
G|-------10\8---6--6-----|-------10\8---------|-------10\8---6--6-----|-----------------|
D|-----8-------------8---|-----8--------------|-----8-------------8---|---6-8-7-8-8-6-7-|
A|-6-9-----------------9-|-6-9----------------|-6-9-----------------9-|-6---------------|
E|-----------------------|--------------------|-----------------------|-----------------|
   E E E S  Q   E. S S S   E E E S  S Q   Q     E E E S  Q   E. S S S   E E E E E E E E

[Break 2]

G|-----------------|-----------------|-3-------3-------|-----------------|
D|-----------------|-13-15-16--------|-----------------|-----x-----------|
A|-2---------------|-----------------|---1--1----1-1-1-|-----------------|
E|-----------------|-----------------|-----------------|-5-5---5-5-5-5-5-|
   W                 E. E. E H         E E. E. E S E.E   E E E E E E E E 

G|-----------------|-------------7---|-----------------|-----------------|
D|-----------------|-----------5-----|-----------------|------------13\8-|
A|-----------------|---------5-------|---6\------------|----------6/-----|
E|-4-4-4--4--4-----|-3---------------|-----------------|-----------------|
   E S E. E. E.Q     H     E S S Q     E Q.    H         H      E E E  E

G|-----------------|-----22-22-21-22-|-----------------|-------------------|
D|-----------------|-----------------|-----------------|----------9-10-11\-|
A|-6\--------------|-----------------|-6\--------------|-------------------|
E|-----------------|-----------------|-----------------|-------------------|
   Q   Q   H         H   E  S  S  Q    Q   Q   H         H      E S S  Q

G|-----------------|----4--6---------|
D|-----------------|-4---------------|
A|-2---------------|-----------------|
E|-----------------|-----------------|
   W                 E. E. E H

[Chorus 4]
                     | 3 |                                        | 3 |
G||--------10\8---6--6-----|-------10\8---------|-------10\8---6--6-----|-------10\8----------||
D||o-----8-------------8---|-----8--------------|-----8-------------8---|-----8--------------o||
A||o-6-9-----------------9-|-6-9----------------|-6-9-----------------9-|-6-9----------------o||
E||------------------------|--------------------|-----------------------|---------------------||
     E E E S  Q   E. S S S   E E E S  S Q   Q     E E E S  Q   E. S S S   E E E S  S Q   Q

[Verse 4]
                     | 3 |                                        | 3 |
G||--------10\8---6--6-----|-------10\8---------|-------10\8---6--6-----|-------10\8----------||
D||o-----8-------------8---|-----8--------------|-----8-------------8---|-----8--------------o||
A||o-6-9-----------------9-|-6-9----------------|-6-9-----------------9-|-6-9----------------o||
E||------------------------|--------------------|-----------------------|---------------------||
     E E E S  Q   E. S S S   E E E S  S Q   Q     E E E S  Q   E. S S S   E E E S  S Q   Q
                    ___                                          ___
                   | 3 |                                        | 3 |
G|-------10\8---6--6-----|-------10\8---------|-------10\8---6--6-----|-------10\8---------|
D|-----8-------------8---|-----8--------------|-----8-------------8---|-----8--------------|
A|-6-9-----------------9-|-6-9----------------|-6-9-----------------9-|-6-9----------------|
E|-----------------------|--------------------|-----------------------|--------------------|
   E E E S  Q   E. S S S   E E E S  S Q   Q     E E E S  Q   E. S S S   E E E S  S Q   Q
                    ___ 
                   | 3 | 
G|-------10\8---6--6-----|-------10\8---------|-------10\8---6--13-11-|-9-------6-------|
D|-----8-------------8---|-----8--------------|-----8-----------------|-----------------|
A|-6-9-----------------6-|-6-9----------------|-6-9-------------------|-----------------|
E|-----------------------|--------------------|-----------------------|-----------------|
   E E E S  Q   E. S S S   E E E S  S Q   Q     E E E S  Q   E. E  E    Q   Q   Q   Q

[Break 3]

G|-------------------|---------------3-|------------------|---------4-7-5-4-|
D|-------------------|-------------2---|------------------|-----------------|
A|-1\----1--1-1-1--1-|-0-----0---------|------------------|-----------------|
E|-------------------|-----------------|-4-----4--4-4-4-2-|-3---------------|
   Q   S E  E S E. E   Q.    Q.    E E   Q.    E. S E E E   H       E E S E.

G|-----------------|---------------|---------------6-|
D|-1---------------|--- 11 Bars ---|-------------8---|
A|-----------------|---  Rest   ---|-----------------|
E|-----------------|---------------|-----------------|
   W                                 H       Q S S E
                      ___                                          ___
                     | 3 |                                        | 3 |                     x4
G||--------10\8---6--6-----|-------10\8---------|-------10\8---6--6-----|-------10\8----------||
D||o-----8-------------8---|-----8--------------|-----8-------------8---|-----8--------------o||
A||o-6-9-----------------9-|-6-9----------------|-6-9-----------------9-|-6-9----------------o||
E||------------------------|--------------------|-----------------------|---------------------||
     E E E S  Q   E. S S S   E E E S  S Q   Q     E E E S  Q   E. S S S   E E E S  S Q   Q

Horn Solos            ___                                          ___
                     | 3 |                                        | 3 |
G||--------10\8---6--6-----|-------10\8---------|-------10\8---6--6-----|-------10\8----------||
D||o-----8-------------8---|-----8--------------|-----8-------------8---|-----8--------------o||
A||o-6-9-----------------9-|-6-9----------------|-6-9-----------------9-|-6-9----------------o||
E||------------------------|--------------------|-----------------------|---------------------||
     E E E S  Q   E. S S S   E E E S  S Q   Q     E E E S  Q   E. S S S   E E E S  S Q   Q
                    ___                                          ___
                   | 3 |                                        | 3 |
G|-------10\8---6--6-----|-------10\8---------|-------10\8---6--6-----|-------10\8---------|
D|-----8-------------8---|-----8--------------|-----8-------------8---|-----8--------------|
A|-6-9-----------------9-|-6-9----------------|-6-9-----------------9-|-6-9----------------|
E|-----------------------|--------------------|-----------------------|--------------------|
   E E E S  Q   E. S S S   E E E S  S Q   Q     E E E S  Q   E. S S S   E E E S  S Q   Q

G|-----------------|-----------------|-----------------|-----------------|
D|-----------------|-----------------|-----------------|-----------------|
A|-----------------|-----------------|-----------------|-----------------|
E|-----------------|-----------------|-6---------------|-5---------------|
   W                 W                 H       H         H       H

G|-----------------|-------10---------------|-13--------------|(13)\------------|
D|-----------------|-11-13----11-11-13------|-----------------|-----------------|
A|-----------------|------------------------|-----------------|-----------------|
E|-4---------------|------------------------|-----------------|-----------------|
   H      H          E  S  E. E  S  S Q.      W                 W

Horn Solos Part 2     ___                                          ___
                     | 3 |                                        | 3 |                     x4
G||--------10\8---6--6-----|-------10\8---------|-------10\8---6--6-----|-------10\8----------||
D||o-----8-------------8---|-----8--------------|-----8-------------8---|-----8--------------o||
A||o-6-9-----------------9-|-6-9----------------|-6-9-----------------9-|-6-9----------------o||
E||------------------------|--------------------|-----------------------|---------------------||
     E E E S  Q   E. S S S   E E E S  S Q   E E   E E E S  Q   E. S S S   E E E S  S Q   E E
                    ___                                          ___
                   | 3 |                                        | 3 |
G|-------10\8---6--6-----|-------10\8---------|-------10\8---6--6-----|-------10\8---------|
D|-----8-------------8---|-----8--------------|-----8-------------8---|-----8--------------|
A|-6-9-----------------9-|-6-9------------x-x-|-6-9-----------------9-|-6-9------------x-x-|
E|-----------------------|--------------------|-----------------------|--------------------|
   E E E S  Q   E. S S S   E E E S  S Q   E E   E E E S  Q   E. S S S   E E E S  S Q   E E
                                                            ___
                                                           | 3 |
G|-----------------|-------10\8---------|-------10\8---6--6-----|-------10\8----13-13-|
D|-----------------|-----8--------------|-----8-------------8---|-----8---------------|
A|-6-9-9\----x-x-x-|-6-9----------------|-6-9-----------------9-|-6-9-----------------|
E|-----------------|--------------------|-----------------------|---------------------|
   E E Q   E E E E   E E E S  S Q   Q     E E E S  Q   E. S S S   E E E S  S Q   E  E
                    ___                                          ___
                   | 3 |                                        | 3 |
G|-------10\8---6--6-----|-------10\8---------|-------10\8---6--6-----|-------10\8---------|
D|-----8-------------8---|-----8--------------|-----8-------------8---|-----8--------------|
A|-6-9-----------------9-|-6-9------------x-x-|-6-9-----------------9-|-6-9------------x-x-|
E|-----------------------|--------------------|-----------------------|--------------------|
   E E E S  Q   E. S S S   E E E S  S Q   E E   E E E S  Q   E. S S S   E E E S  S Q   E E
                                                            ___
                                                           | 3 |
G|-----------------|-------10\8---------|-------10\8---6--6-----|-------10\8-13-13-13-10-|
D|-----------------|-----8--------------|-----8-------------8---|-----8------------------|
A|-x-x-x-x-x-x-x-x-|-6-9----------------|-6-9-----------------9-|-6-9--------------------|
E|-----------------|--------------------|-----------------------|------------------------|
   E E E E E E E E   E E E S  S Q   Q     E E E S  Q   E. S S S   E E E S  S E  E  S  E.

G|-13--------------|-----------------|-------12--------|-----------------|
D|-----------------|-11--------------|----7------------|-------11--------|
A|-----------------|-----------------|-8---------------|-9--11-----------|
E|-----------------|-----------------|-----------------|-----------------|
   W                 W                 E. E. E H         E. E. E H

G|-----------------|-----------------|-13--------------|(13)-------------|
D|-----------------|-----------------|-----------------|-----------------|
A|-8---------------|-7---------------|-----------------|-----------------|
E|-----------------|-----------------|-----------------|-----------------|
   W                 W                 W                 W

G|(13)-------------|-----------------|
D|-----------------|-6-6-6-6-6-6-6\--|
A|-----------------|-----------------|
E|-----------------|-----------------|
   W                 E E E E E E Q

[Outro]

G|-----------------|---6------8------|-----------------|---6-6-10-8------|
D|-----------------|-8----------8----|-----------------|-8----------8----|
A|-----------6-6---|-----------------|-----------6-6---|-----------------|
E|-2---------------|-----------------|-2---------------|-----------------|
   Q   Q.    E Q     E E E E  E E Q    Q   Q.    E Q     E E E E  E E Q

G|-----------------|---6-6-10-8------|-----------------|---6-6-10-10-10-8-----|
D|-----------------|-8----------8----|-----------------|-8----------------8---|
A|-----------6-6---|-----------------|-----------6-6---|----------------------|
E|-2---------------|-----------------|-2---------------|----------------------|
   Q   Q.    E Q     E E E E  E E Q    Q   Q.    E Q     E E E E  E  S  S Q

G|-----------------|---6-6-10-8-------|-----------------|---6-6-10-10-10-8-----|
D|-----------------|-8----------8---8-|-----------------|-8----------------8---|
A|-----------6-6---|------------------|-----------6-6---|----------------------|
E|-2---------------|------------------|-2---------------|----------------------|
   Q   Q.    E Q     E E E E  E E E E   Q   Q.    E Q     E E E E  E  S  S Q

G|-----------------|---6-6-10-8------|-----------------|---6-6-10-8------|
D|-----------------|-8----------8----|-----------------|-8----------8----|
A|-----------6-6---|--------------6\-|-----------6-6---|--------------6\-|
E|-2---------------|-----------------|-2---------------|-----------------|
   Q   Q.    E Q     E E E E  E E Q    Q   Q.    E Q     E E E E  E E Q

G|-----------------|---6-6-10-8------|-----------------|---6-6-10-10-10-8-10\-|
D|-----------------|-8----------8----|-----------------|-8--------------------|
A|-----------6-6---|--------------6\-|-----------6-6---|----------------------|
E|-2---------------|-----------------|-2---------------|----------------------|
   Q   Q.    E Q     E E E E  E E Q    Q   Q.    E Q     E E E E  E  S  S Q

G|-----------------|---6-6-10-8------|-----------------|---6-6-10-10-10-8-----|
D|-----------------|-8----------8----|-----------------|-8----------------8\--|
A|-----------6-6---|--------------6\-|-----------6-6---|----------------------|
E|-2---------------|-----------------|-2---------------|----------------------|
   Q   Q.    E Q     E E E E  E E Q    Q   Q.    E Q     E E E E  E  S  S Q

G|-----------------|-11-11-13--------|---------------------|-------------------|
D|-----------------|-----------------|---------------------|-------------------|
A|-2---------------|-----------------|-1-1--1--1-1-1---1-1-|-------------------|
E|-----------------|-----------------|---------------------|-5-------5-5-5-5-5-|
   W                 S  S  E H.        E E. E. E S S S S E   H       E S E S E

G|-------------------|-------------------|---------------10-6-|-----------------|
D|-------------------|-------------------|---------4-4-6------|-----------------|
A|-------------------|-------------------|--------------------|-----------------|
E|-4-------4-4-4-4-4-|-3-------3-3-3-3-3-|-2------------------|-1---------------|
   H       E S E S E   H       E S E S E   H       S.T E E  E   W

G|-----------4-----|-------------9---|-----------------|---5-----5-------|
D|---------------6-|--------9-11-----|-----------------|-3-----3---------|
A|-----------------|-7---------------|-7\--------------|-----------------|
E|-1\--------------|-----------------|-----------------|-----------------|
   Q   Q.    Q   E   H    E S S  Q     Q   Q   H         E E E E E Q.

G|-----------------|-----------------|-----------------|-----------------||
D|-4---------------|(4)--------------|(4)--------------|(4)--------------||
A|-----------------|-----------------|-----------------|-----------------||
E|-----------------|-----------------|-----------------|-----------------||
   W                 W                 W                 W

Key to rhythm notations:

W - Whole Note/Semi-Brieve
H - Half Note/Minim
Q - Quarter Note/Crotchet       Q. - Dotted Quarter Note
E - Eight Note/Quaver           E. - Dotted Eight Note
S - Sixteenth Note/Semi-Quaver  S. - Dotted Sixteenth Note

************************************

| \    Slide down
| /    Slide up
| (n)  Ghost note

************************************
Suggest correction
Give kudos to tab author, rate the tab!
1 2 3 4 5
comments
print report bad tab
guest
You may want to rate the tab now too:
select rating
Wanna post a correction for this tab? Suggest correction