Oops, an error
Loading. Please wait.

Computer Blue bass

version 1
version 1

Whole song

Interactive

by Prince
130 views 1 this week
no commentswrite comment
1 2 3 4 5
3 more votes to show rating
add to favorites
×
Save as Personal and add changes to this tab that will be seen only by you. Learn more ›
×
You can save this tab as Personal to edit and correct it or add notes. All changes will be seen only by you. Learn more »
launch autoscroll
font size
0
reset
guitar tuner
edit
Autoscroll
slow
fast
+/-
esc
set tempo
stop
[Intro]

15 Bars

Gb|-----------------|
Db|-------------2-1-|
Ab|-----------------|
Eb|-----------------|
    Q   Q   Q   E E

Gb|-----------------|-----------------|-----------------|-----------------|
Db|-2---------------|-2-----------0-2-|-2---------------|-2-----------0---|
Ab|-----------------|-----------------|-----------------|-----------------| x2
Eb|-----1-2-3-x-x-x-|---0-1-2-x-x-----|-----1-2-3-x-x-x-|---0-1-2-x-x-----|
    Q   E E E E E E   E E E E E E E E   Q   E E E E E E   E E E E E E Q

[Verse 1]

Gb|-----------------|-----------------|-----------------|-----------------|
Db|-2---------------|-2-------2-2-0-2-|-2---------------|-2-----------0---|
Ab|-----------------|-----------------|-----------------|-----------------| x3
Eb|-----1-2-3-x-x-x-|---0-1-2---------|-----1-2-3-x-x-x-|---0-1-2-x-x-----|
    Q   E E E E E E   E E E E E E E E   Q   E E E E E E   E E E E E E Q

Gb|-----------------|-----------------|-----------------|-----------------|
Db|-2---------------|-2-------2-2-0-2-|-2---------------|-2-------2-2-2---|
Ab|-----------------|-----------------|-----------------|-----------------|
Eb|-----1-2-3-x-x-x-|---0-1-2---------|-----1-2-3-x-x-x-|---0-1-2-x-x-----|
    Q   E E E E E E   E E E E E E E E   Q   E E E E E E   E E E E E E Q

Chorus 1

Gb|-----------------|-----------------|-----------------|-----------------|
Db|-----------------|-----------------|-2---------------|-2-------2---0-2-|
Ab|-3-3-3-3-3-3-3-3-|-5-5-5-5-5-5-5-5-|-----------------|-----------------|
Eb|-----------------|-----------------|---0-1-2-3-2-----|---0-1-2---------|
    E E E E E E E E   E E E E E E E E   E E E E E E Q     E E E E Q   E E


Gb|-----------------|-----------------|-----------------|-----------------|
Db|-----------------|-----------------|-2---------------|-2-------2---0---|
Ab|-3-3-3-3-3-3-3-3-|-5-5-5-5-5-5-5-5-|-----------------|-----------------|
Eb|-----------------|-----------------|---0-1-2-3-2-----|---0-1-2---------|
    E E E E E E E E   E E E E E E E E   E E E E E E Q     E E E E Q   Q

Gb|-----------------|-----------------|-----------------|-----------------|
Db|-2---------------|-2-------2---0---|-2---------------|-2-------2---0-2-|
Ab|-----------------|-----------------|-----------------|-----------------|
Eb|---0-1-2-3-2-----|---0-1-2---------|---0-1-2-x-x-x-x-|---0-1-2---------|
    E E E E E E Q     E E E E Q   Q     E E E E E E E E   E E E E E E E E

Gb|-----------------|-----------------|
Db|-2---------------|-2-------2---0---|
Ab|-----------------|-----------------|
Eb|---0-1-2-x-x-x-x-|---0-1-2---------|
    E E E E E E E E   E E E E Q   Q

[Solo]

Gb|-----------------|-----------------|-----------------|-----------------|
Db|-----------------|-----------------|-----------------|-----------------|
Ab|-3-3-3-3-3-3-3-3-|-1---------------|(1)--------------|-5---------------|
Eb|-----------------|-----------------|-----------------|-----------------|
    E E E E E E E E   W                 W                 E E H.

Gb|-----------------|-----------------|-----------------|-----------------|
Db|-----------------|-----------------|-----------------|-----------------|
Ab|-----------------|-1---------------|(1)--------------|-5---------------|
Eb|-----------------|-----------------|-----------------|-----------------|
    W                 W                 W                 E E H.

Gb|-----------------|-----------------|-----------------|-----------------|
Db|-----------------|-2---------------|(2)--------------|-----------------|
Ab|-----------------|-----------------|-----------------|-----------------|
Eb|-----------------|-----------------|-----------------|-4---------------|
    W                 W                 W                 E E H.

Gb|-----------------|-----------------|-----------------|-----------------|
Db|-----------------|-----------------|-----------------|-----------------|
Ab|-----------------|-5-5-5-5-5-5-5-5-|-5-5-5-5-5-5-5-5-|-5-5-5-5-5-5-5-5-|
Eb|-----------------|-----------------|-----------------|-----------------|
    W                 E E E E E E E E   E E E E E E E E   E E E E E E E E

Gb|-----------------|-------------------------|-----------------|-----------------|
Db|-----------------|-------------------------|-----------------|-----------------|
Ab|-5-5-5-5-5-5-5-5-|-5-----3-----2-1-4-5-6-7-|-----------------|-----------------|
Eb|-----------------|----5-----3--------------|-----------------|-----------------|
    E E E E E E E E   E. E. E. E. E E E E E E   W                 W

[Father's Song]

Gb|-------5-3-----3-|(3)--------------|-------5-3-----3-|(3)--------------|
Db|-----------------|-----------------|-----------------|-----------------|
Ab|-3---------------|-----------------|-3---------------|-----------------| x3
Eb|-----------------|-----------------|-----------------|-----------------|
    Q.    E Q.    E   W                 Q.    E Q.    E   W

Gb|-------5-3-----3-|(3)--------------|-------5-3-----3-|(3)--------------|
Db|-----------------|-----------------|-----------------|-----------------|
Ab|-1---------------|-----------------|-3---------------|-----------------|
Eb|-----------------|-----------------|-----------------|-----------------|
    Q.    E Q.    E   W                 Q.    E Q.    E   W

Gb|-----------------|-----------------|-----------------|-----------------|
Db|-------6---------|-------5---------|-------6---------|-------5---------|
Ab|-----------------|-----------------|-----------------|-----------------|
Eb|-4---------------|-3---------------|-4---------------|-3---------------|
    Q.    E H         Q.    E H         Q.    E H         Q.    E H

Gb|-----------------|-----------------|-------5-3-----3-|(3)--------------|
Db|-------6---------|-------5---------|-----------------|-----------------|
Ab|-----------------|-----------------|-3---------------|-----------------|
Eb|-4---------------|-3---------------|-----------------|-----------------|
    Q.    E H         Q.    E H         Q.    E Q.    E   W

Gb|-------5-3-----3-|(3)--------------|-----------------|-----------------|
Db|-----------------|-----------------|-----------------|-------5---------|
Ab|-3---------------|-----------------|-------6-6-------|-----------------|
Eb|-----------------|-----------------|-4---------------|-3---------------|
    Q.    E Q.    E   W                 Q.    E Q   Q     Q.    E H

Gb|-----------------|-----------------|-----------------|-----------------|
Db|-------------6---|-------5---------|-------------6---|-------5-----x-x-|
Ab|-------6-------6-|---------------5-|-------6---------|-----------------|
Eb|-4---------------|-3---------------|-4---------------|-3---------------|
    Q.    E Q   E E   Q.    E Q.    E   Q.    E Q   E E   Q.    E Q   E E

[Outro]

Gb|-----------------|-----------------|-----------------|-----------------|
Db|-2---2---2---2---|-2-2-2-2-2-2-2-2-|-2---2---2-2-2-2-|-2---2---2---2---|
Ab|-----------------|-----------------|-----------------|-----------------|
Eb|-----------------|-----------------|-----------------|-----------------|
    Q   Q   Q   Q     E E E E E E E E   Q   Q   E E E E   Q   Q   Q   Q

Gb|-----------------|-----------------|-----------------|-----------------|
Db|-2---2---2-2-2-2-|-2---2---2-2-2-2-|-2-2-2-2-2-2-2-2-|-2-2-2-2-2-2-x-x-|
Ab|-----------------|-----------------|-----------------|-----------------|
Eb|-----------------|-----------------|-----------------|-----------------|
    Q   Q   E E E E   Q   Q   E E E E   E E E E E E E E   E E E E E E E E 

Gb|-----------------|-----------------|-----------------|-----------------|
Db|-2---------------|-2-----------0-2-|-2---------------|-2-----------0---|
Ab|-----------------|-----------------|-----------------|-----------------|
Eb|-----1-2-3-x-x-x-|---0-1-2-x-x-----|-----1-2-3-x-x-x-|---0-1-2-x-x-----|
    Q   E E E E E E   E E E E E E E E   Q   E E E E E E   E E E E E E Q

Gb|-----------------|-----------------|-----------------|-----------------|
Db|-2---------------|-2-----------0-2-|-2---------------|-0---0-2---------|
Ab|-----------------|-----------------|-----------------|-----------------|
Eb|-----1-2-3-x-x-x-|---0-1-2-x-x-----|-----1-2-3-x-x-x-|-----------------|
    Q   E E E E E E   E E E E E E E E   Q   E E E E E E   E E E E H

Gb|-----------------|-----------------|-----------------|-----------------||
Db|(2)--------------|(2)--------------|(2)--------------|(2)--------------||
Ab|-----------------|-----------------|-----------------|-----------------|| x2
Eb|-----------------|-----------------|-----------------|-----------------||
    W                 W                 W                 W

            
            
Suggest correction
Creating personal tab
Creating personal tab
You can edit any tab online and save it as your Personal.

You can edit, replace or remove any tab part or add personal notes – all changes will be seen only by you.

Personal tabs can be accessed anytime from any device, even offline.
Learn more »
Give kudos to tab author, rate the tab!
1 2 3 4 5
comments
print report bad tab
guest
You may want to rate the tab now too:
select rating
Wanna post a correction for this tab? Suggest correction