Oops, an error
Loading. Please wait.

Controversy Bass Tab

5,565 views 15 this week
no commentswrite comment
1 2 3 4 5
accurate
x 4
add to favorites
launch autoscroll
font size
0
reset
guitar tuner
Autoscroll
slow
fast
+/-
esc
set tempo
stop
Help us to improve Ultimate-Guitar.com Take our survey!
×
Contributor
brocksensy 5,729
Controversy - Prince Bass Tab



Verse
-----------------------------------------------------------------------|
------------------2--4-------------------------1--2--------------------|
---4-----6---------------4-----------44--6-----------------------------|
-----------------------------------------------------------------------|
Chorus
------8-------6h8p6----------------------------------------------------|
--------6h8-----------8--6---------------------------------------------|
-6----------------------------8--6-------------------------------------|
-----------------------------------------------------------------------|

------6-------4h6p4----------------------------------------------------|
--------4h6------------4--4--4-----------------------------------------|
-4---------------------------------------------------------------------|
-----------------------------------------------------------------------|

------4-------2h4p2--------------4------------4------------------------|
--------2h4-----------4--2-----------2h4p2-----------------------------|
-2-----------------------------2---------------------------------------|
-----------------------------------------------------------------------|
Extra fills (verse)
-------------------------------------------------------------------4---|
------------------2--4-------------------------1--2-------4h6------6---|
---4-----6---------------4-----------44--6-----------------------------|
-----------------------------------------------------------------------|

Pre-Chorus
-----------------------------------------------------------------------------|
-----------------------------------------------------------------------------|
---6---6---6---6---6---6---6---6---------------------------------------------|
-----------------------------------------------------------------------------|

Intro
Verse  X 4
Chorus X 1
Verse  X 4
Chorus X 1
Verse  X 4
Chorus X 3
Verse  X 2
Break Down (no bass)
Pre-Chorus X 1
Verse X 4
comments
print report bad tab
I want to post or [tab]
guest
You may want to rate the tab now too:
select rating
Please do not post tabs as comments. Select "correction" instead!