Oops, an error
Loading. Please wait.

Controversy bass

version 2
version 2

Whole song

  • Bass part from the album version of the song.
by Prince
94 views 6 this week
2 commentsread comments
1 2 3 4 5
3 more votes to show rating
add to favorites
×
Save as Personal and add changes to this tab that will be seen only by you. Learn more ›
×
You can save this tab as Personal to edit and correct it or add notes. All changes will be seen only by you. Learn more »
launch autoscroll
font size
0
reset
guitar tuner
edit
Autoscroll
slow
fast
+/-
esc
set tempo
stop
Author
Difficulty
About this tab version
Bass part from the album version of the song. Was this info helpful? Yes No
[Intro]

G|-----------------|-----------------|-----------------|-----------------|
D|-----------------|-----------------|-----------------|-----------------|
A|-----------------|-----------------|-----------------|-----------------| x4
E|-2---2---2---2---|-2---2---2---x---|-2---2---2---2---|-2---2---2---x---|
B|-----------------|-----------------|-----------------|-----------------|
   Q   Q   Q   Q     Q   Q   Q   Q     Q   Q   Q   Q     Q   Q   Q   Q   

[Verse 1]

G|-----------------|-----------------|-----------------|-----------------|
D|-----------------|-----------------|-----------------|-----------------|
A|-----------------|-----------------|-----------------|-----------------| x2
E|-2---2---2---2---|-2---2---2---x---|-2---2---2---2---|-2---2---2---x---|
B|-----------------|-----------------|-----------------|-----------------|
   Q   Q   Q   Q     Q   Q   Q   Q     Q   Q   Q   Q     Q   Q   Q   Q   

[Chorus 1]

G|-----------------|-----------------|-----------------|-----------------|
D|-----------------|-----------------|-----------------|-----------------|
A|-6---6---6---6---|-4---4---4---4---|-2---2---2---2---|-2---2---2/x\2---|
E|-----------------|-----------------|-----------------|-----------------|
B|-----------------|-----------------|-----------------|-----------------|
   Q   Q   Q   Q     Q   Q   Q   Q     Q   Q   Q   Q     Q   Q   E E Q

[Break 1]

G|-----------------|-----------------|-----------------|-----------------|
D|-----------------|-----------------|-----------------|-----------------|
A|-----------------|-----------------|-----------------|-----------------|
E|-2---2---2---2---|-2---2---2---x---|-2---2---2---2---|-2---2---2---x---|
B|-----------------|-----------------|-----------------|-----------------|
   Q   Q   Q   Q     Q   Q   Q   Q     Q   Q   Q   Q     Q   Q   Q   Q   

G|-----------------|-----------------|-----------------|-----------------|
D|-----------------|-----------------|-----------------|-----------------|
A|-----------------|-----------------|-----------------|-----------------|
E|-2---2---2---2---|-2---2---2---x---|-2---2---2---2---|-2---2---2-x-2---|
B|-----------------|-----------------|-----------------|-----------------|
   Q   Q   Q   Q     Q   Q   Q   Q     Q   Q   Q   Q     Q   Q   E E Q

[Verse 2]

G|-----------------|-----------------|-----------------|-----------------|
D|-----------------|-----------------|-----------------|-----------------|
A|-----------------|-----------------|-----------------|-----------------| x2
E|-2---2---2---2---|-2---2---2---x---|-2---2---2---2---|-2---2---2---x---|
B|-----------------|-----------------|-----------------|-----------------|
   Q   Q   Q   Q     Q   Q   Q   Q     Q   Q   Q   Q     Q   Q   Q   Q   

[Chorus 2]

G|-----------------|-----------------|-----------------|-----------------|
D|-----------------|-----------------|-----------------|-----------------|
A|-6---6---6---6---|-4---4---4---4---|-2---2---2---2---|-2---2---2/x\2---|
E|-----------------|-----------------|-----------------|-----------------|
B|-----------------|-----------------|-----------------|-----------------|
   Q   Q   Q   Q     Q   Q   Q   Q     Q   Q   Q   Q     Q   Q   E E Q

[Break 2]

G|-----------------|-----------------|-----------------|-----------------|
D|-----------------|-----------------|-----------------|-----------------|
A|-----------------|-----------------|-----------------|-----------------| x2
E|-2---2---2---2---|-2---2---2---x---|-2---2---2---2---|-2---2---2---x---|
B|-----------------|-----------------|-----------------|-----------------|
   Q   Q   Q   Q     Q   Q   Q   Q     Q   Q   Q   Q     Q   Q   Q   Q   

[Chorus 3]

G|-----------------|-----------------|-----------------|-----------------|
D|-----------------|-----------------|-----------------|-----------------|
A|-6---6---6---6---|-4---4---4---4---|-2---2---2---2---|-2---2---2---2---| x2
E|-----------------|-----------------|-----------------|-----------------|
B|-----------------|-----------------|-----------------|-----------------|
   Q   Q   Q   Q     Q   Q   Q   Q     Q   Q   Q   Q     Q   Q   Q   Q

G|-----------------|-----------------|-----------------|-----------------|
D|-----------------|-----------------|-----------------|-----------------|
A|-6---6---6---6---|-4---4---4---4---|-2---2---2---2---|-2---2---2/x\2---|
E|-----------------|-----------------|-----------------|-----------------|
B|-----------------|-----------------|-----------------|-----------------|
   Q   Q   Q   Q     Q   Q   Q   Q     Q   Q   Q   Q     Q   Q   E E Q

[Break 3]

G|-----------------|-----------------|-----------------|-----------------|
D|-----------------|-----------------|-----------------|-----------------|
A|-----------------|-----------------|-----------------|-----------------| x4
E|-2---2---2---2---|-2---2---2---x---|-2---2---2---2---|-2---2---2---x---|
B|-----------------|-----------------|-----------------|-----------------|
   Q   Q   Q   Q     Q   Q   Q   Q     Q   Q   Q   Q     Q   Q   Q   Q 

[Chorus 4]

G|-----------------|-----------------|-----------------|-----------------|
D|-----------------|-----------------|-----------------|-----------------|
A|-6---6---6---6---|-4---4---4---4---|-2---2---2---2---|-2---2---2---2---| x2
E|-----------------|-----------------|-----------------|-----------------|
B|-----------------|-----------------|-----------------|-----------------|
   Q   Q   Q   Q     Q   Q   Q   Q     Q   Q   Q   Q     Q   Q   Q   Q

G|-----------------|-----------------|-----------------|-----------------|
D|-----------------|-----------------|-----------------|-----------------|
A|-6---6---6---6---|-4---4---4---4---|-2---2---2---2---|-2---2---2/x\2---|
E|-----------------|-----------------|-----------------|-----------------|
B|-----------------|-----------------|-----------------|-----------------|
   Q   Q   Q   Q     Q   Q   Q   Q     Q   Q   Q   Q     Q   Q   E E Q 

[Break 4]

G|-----------------|-----------------|-----------------|-----------------|
D|-----------------|-----------------|-----------------|-----------------|
A|-----------------|-----------------|-----------------|-----------------| x8
E|-2---2---2---2---|-2---2---2---x---|-2---2---2---2---|-2---2---2---x---|
B|-----------------|-----------------|-----------------|-----------------|
   Q   Q   Q   Q     Q   Q   Q   Q     Q   Q   Q   Q     Q   Q   Q   Q  

4 Bars Rest

G|-----------------|-----------------|-----------------|-----------------|
D|-----------------|-----------------|-----------------|-----------------|
A|-----------------|-----------------|-----------------|-----------------|
E|-2---2---2---2---|-2---2---2---x---|-2---2---2---2---|-2---2---2---x---|
B|-----------------|-----------------|-----------------|-----------------|
   Q   Q   Q   Q     Q   Q   Q   Q     Q   Q   Q   Q     Q   Q   Q   Q  

G|-----------------|-----------------|-----------------|-----------------|
D|-----------------|-----------------|-----------------|-----------------|
A|-6---6---6---6---|-4---4---4---4---|-2---2---2---2---|-2---2---2---2---|
E|-----------------|-----------------|-----------------|-----------------|
B|-----------------|-----------------|-----------------|-----------------|
   Q   Q   Q   Q     Q   Q   Q   Q     Q   Q   Q   Q     Q   Q   Q   Q

G|-----------------|-----------------|-----------------|-----------------|
D|-----------------|-----------------|-----------------|-----------------|
A|-----------------|-----------------|-----------------|-----------------| x6
E|-2---2---2---2---|-2---2---2---x---|-2---2---2---2---|-2---2---2---x---|
B|-----------------|-----------------|-----------------|-----------------|
   Q   Q   Q   Q     Q   Q   Q   Q     Q   Q   Q   Q     Q   Q   Q   Q

[Outro]

G|-----------------|-----------------|-----------------|-----------------|
D|-----------------|-----------------|-----------------|-----------------|
A|-----------------|-----------------|-----------------|-----------------|
E|-2---2---2---2---|-2---2---2---x---|-2---2---2---2---|-2---2---2---x---|
B|-----------------|-----------------|-----------------|-----------------|
   Q   Q   Q   Q     Q   Q   Q   Q     Q   Q   Q   Q     Q   Q   Q   Q

G|-----------------|-----------------|-----------------|-----------------|
D|-----------------|-----------------|-----------------|-----------------|
A|-----------------|-----------------|-----------------|-----------------|
E|-2---2---2---2---|-2---2---2---x---|-2---2---2---2---|-2-------0---1---|
B|-----------------|-----------------|-----------------|-----4-----------|
   Q   Q   Q   Q     Q   Q   Q   Q     Q   Q   Q   Q     Q   Q   Q   Q

G|-----------------|-----------------|-----------------|-----------------|
D|-----------------|-----------------|-----------------|-----------------|
A|-----------------|-----------------|-----------------|-----------------| x2
E|-2---2---2---2---|-2---2---2---x---|-2---2---2---2---|-2---2---2---x---|
B|-----------------|-----------------|-----------------|-----------------|
   Q   Q   Q   Q     Q   Q   Q   Q     Q   Q   Q   Q     Q   Q   Q   Q

G|-----------------|-----------------|-----------------|-----------------|
D|-----------------|-----------------|-----------------|-----------------|
A|-----------------|-----------------|-----------------|-----------------|
E|-2---2---2---2---|-2---2---2---x---|-2---2---2---2---|-2-------0---1---|
B|-----------------|-----------------|-----------------|-----4-----------|
   Q   Q   Q   Q     Q   Q   Q   Q     Q   Q   Q   Q     Q   Q   Q   Q

G|-----------------|-----------------|-----------------|-----------------|
D|-----------------|-----------------|-----------------|-----------------|
A|-----------------|-----------------|-----------------|-----------------|
E|-2---2---2---2---|-2---2---2---x---|-2---2---2---2---|-2---2---2---x---|
B|-----------------|-----------------|-----------------|-----------------|
   Q   Q   Q   Q     Q   Q   Q   Q     Q   Q   Q   Q     Q   Q   Q   Q

G|-----------------|-----------------|-----------------|-----------------|
D|-----------------|-----------------|-----------------|-----------------|
A|-6---6---6---6---|-4---4---4---4---|-2---2---2---2---|-2---2---2---2---| x3
E|-----------------|-----------------|-----------------|-----------------|
B|-----------------|-----------------|-----------------|-----------------|
   Q   Q   Q   Q     Q   Q   Q   Q     Q   Q   Q   Q     Q   Q   Q   Q

G|-----------------|-----------------|-----------------|-----------------|
D|-----------------|-----------------|-----------------|-----------------|
A|-----------------|-----------------|-----------------|-----------------| x2
E|-2---2---2---2---|-2---2---2---x---|-2---2---2---2---|-2---2---2---x---|
B|-----------------|-----------------|-----------------|-----------------|
   Q   Q   Q   Q     Q   Q   Q   Q     Q   Q   Q   Q     Q   Q   Q   Q

G|-----------------|-----------------|-----------------|-----------------|
D|-----------------|-----------------|-----------------|-----------------|
A|-----------------|-----------------|-----------------|-----------------|
E|-2---2---2---2---|-2---2---2---x---|-2---2---2---2---|-2-------0---1---|
B|-----------------|-----------------|-----------------|-----4-----------|
   Q   Q   Q   Q     Q   Q   Q   Q     Q   Q   Q   Q     Q   Q   Q   Q

2 Bars Rest

G|-----------------|-----------------|-----------------||
D|-----------------|-----------------|-----------------||
A|-----------------|-----------------|-----------------||
E|-2---2---2---2---|-2-------0---1---|-2---------------||
B|-----------------|-----4-----------|-----------------||
   Q   Q   Q   Q     Q   Q   Q   Q
Suggest correction
Creating personal tab
Creating personal tab
You can edit any tab online and save it as your Personal.

You can edit, replace or remove any tab part or add personal notes – all changes will be seen only by you.

Personal tabs can be accessed anytime from any device, even offline.
Learn more »
Give kudos to tab author, rate the tab!
1 2 3 4 5
comments
print report bad tab
2 comments total.
0 reply
LBassy 39 Mar 05, 2017 10:09 PM

In "Break 4" you have the second set of four measures repeating. That's incorrect. They should not repeat.

guest
You may want to rate the tab now too:
select rating
Wanna post a correction for this tab? Suggest correction