Oops, an error
Loading. Please wait.

Darling Nikki bass

version 1
version 1

Whole song

Interactive

by Prince
205 views 1 this week
no commentswrite comment
1 2 3 4 5
3 more votes to show rating
add to favorites
×
Save as Personal and add changes to this tab that will be seen only by you. Learn more ›
×
You can save this tab as Personal to edit and correct it or add notes. All changes will be seen only by you. Learn more »
launch autoscroll
font size
0
reset
guitar tuner
backing track
0:00
0:00
edit
Autoscroll
slow
fast
+/-
esc
set tempo
stop
Author
Difficulty
[Intro]

G|---------4-------|---------4-------|---------5-------|-----------------|
D|-------------4---|-----------------|-----------------|-----------------|
A|-2---2-----------|-2---------------|-----------------|-----------------|
E|-------2---------|-----------------|-3---------------|-3---------------|
   Q   E E Q   Q     Q   Q   Q   Q     Q   Q   Q   Q     W

G|-----------------|-----------------|-----------------|-----------------|
D|---------2-------|---------2-------|-----------------|-----------------|
A|-----------------|-----------------|-----------------|-----------------|
E|-0---------------|-0---------------|-0---------------|-2---------------|
   Q   Q   Q   Q     Q   Q   Q   Q     Q   Q   Q   Q     W

G|---------4-------|---------4-------|---------5-------|-----------------|
D|-----------------|-----------------|-----------------|-----------------|
A|-2---------------|-2---------------|-----------------|-----------------|
E|-----------------|-----------------|-3---------------|-3---------------|
   Q   Q   Q   Q     Q   Q   Q   Q     Q   Q   Q   Q     W

G|-----------------|-----------------|-----------------|-----------------|
D|---------2-------|---------2-------|-----------------|-----------------|
A|-----------------|-----------------|-----------------|-----------------|
E|-0---------------|-0---------------|-0---------------|-----------------|
   Q   Q   Q   Q     Q   Q   Q   Q     Q   Q   Q   Q     W

[Verse 1]

G|---------4-------|---------4-------|---------5-------|-----------------|
D|-----------------|-----------------|-----------------|-----------------|
A|-2---------------|-2---------------|-----------------|-----------------|
E|-----------------|-----------------|-3---------------|-3---------------|
   Q   Q   Q   Q     Q   Q   Q   Q     Q   Q   Q   Q     W

G|-----------------|-----------------|-----------------|-----------------|
D|---------2-------|---------2-------|---------2-------|-----------------|
A|-----------------|-----------------|-----------------|-----------------|
E|-0---------------|-0---------------|-0---------------|-2---------------|
   Q   Q   Q   Q     Q   Q   Q   Q     Q   Q   Q   Q     W

G|-----------------|-----------------|-----------------|-----------------|
D|---------5-------|---------5-------|-----------------|-4---------------|
A|-----------------|-----------------|-----------------|-----------------|
E|-3---------------|-3---------------|-2---------------|-----------------|
   Q   Q   Q   Q     Q   Q   Q   Q     Q   Q   Q   Q     W

[Chorus 1]

G|-----------------|-----------------|-----------------|-----------------|
D|-----------------|-----------------|-----------------|-------2---------|
A|-2-2-2-2-5---2---|-2-2-2-2-5---2-5-|(5)--------------|---------5-4-----|
E|-----------------|-----------------|-----------------|-----------------|
   E E E E Q   Q     E E E E Q   E E   W                 Q.    E E Q.

G|-----------------|-----------------|-----------------|-----------------|
D|-----------------|-----------------|-----------------|-----------------|
A|-2-2-2-2-5---2---|-2-2-2-2-5---2---|-----------------|-----------------|
E|-----------------|-----------------|-----------------|-----------------|
   E E E E Q   Q     E E E E Q   E E   W                 W

[Verse 2]

G|---------4-------|---------4-------|---------5-------|-----------------|
D|-----------------|-----------------|-----------------|-----------------|
A|-2---------------|-2---------------|-----------------|-----------------|
E|-----------------|-----------------|-3---------------|-3---------------|
   Q   Q   Q   Q     Q   Q   Q   Q     Q   Q   Q   Q     W

G|-----------------|-----------------|-----------------|-----------------|
D|---------2-------|---------2-------|---------2-------|-----------------|
A|-----------------|-----------------|-----------------|-----------------|
E|-0---------------|-0---------------|-0---------------|-2---------------|
   Q   Q   Q   Q     Q   Q   Q   Q     Q   Q   Q   Q     W

G|-----------------|-----------------|-----------------|-----------------|
D|---------5-------|---------5-------|-----------------|-4---------------|
A|-----------------|-----------------|-----------------|-----------------|
E|-3---------------|-3---------------|-2---------------|-----------------|
   Q   Q   Q   Q     Q   Q   Q   Q     Q   Q   Q   Q     W

[Chorus 2]

G|-----------------|-----------------|-----------------|-----------------|
D|-----------------|-----------------|-----------------|-------2---------|
A|-2-2-2-2-5---2---|-2-2-2-2-5---2-5-|(5)--------------|---------5-4-----|
E|-----------------|-----------------|-----------------|-----------------|
   E E E E Q   Q     E E E E Q   E E   W                 Q.    E E Q.

G|-----------------|-----------------|-----------------|-----------------|
D|-----------------|-----------------|-----------------|-----------------|
A|-2-2-2-2-5---2---|-2-2-2-2-5---2---|-----------------|-----------------|
E|-----------------|-----------------|-----------------|-----------------|
   E E E E Q   Q     E E E E Q   E E   W                 W

[Verse 3]

G|---------4-------|---------4-------|---------5-------|-----------------|
D|-----------------|-----------------|-----------------|-----------------|
A|-2---------------|-2---------------|-----------------|-----------------|
E|-----------------|-----------------|-3---------------|-3---------------|
   Q   Q   Q   Q     Q   Q   Q   Q     Q   Q   Q   Q     W

G|-----------------|-----------------|-----------------|-----------------|
D|-2---------------|---------2-------|---------2-------|-4---------------|
A|-----------------|-----------------|-----------------|-----------------|
E|-----------------|-----------------|-0---------------|-----------------|
   Q   Q   Q   Q     Q   Q   Q   Q     Q   Q   Q   Q     W

G|-----------------|-----------------|-----------------|-----------------|
D|---------5-------|---------5-------|-4---------------|-4---------------|
A|-----------------|-----------------|-----------------|-----------------|
E|-3---------------|-3---------------|-----------------|-----------------|
   Q   Q   Q   Q     Q   Q   Q   Q     Q   Q   Q   Q     W

[Chorus 3]

G|-----------------|-----------------|-----------------|-----------------|
D|-----------------|-----------------|-----------------|-------2---------|
A|-2-2-2-2-5---2---|-2-2-2-2-5---2-5-|(5)--------------|---------5-4-----|
E|-----------------|-----------------|-----------------|-----------------|
   E E E E Q   Q     E E E E Q   E E   W                 Q.    E E Q.

G|-----------------|-----------------|-----------------|-----------------|
D|-----------------|-----------------|-----------------|-----------------|
A|-2-2-2-2-5---2---|-2-2-2-2-5---2---|-----------------|-----------------|
E|-----------------|-----------------|-----------------|-----------------|
   E E E E Q   Q     E E E E Q   E E   W                 W

[Verse 4]

G|---------4-------|---------4-------|---------5-------|-----------------|
D|-----------------|-----------------|-----------------|-----------------|
A|-2---------------|-2---------------|-----------------|-----------------|
E|-----------------|-----------------|-3---------------|-3---------------|
   Q   Q   Q   Q     Q   Q   Q   Q     Q   Q   Q   Q     W

G|-----------------|-----------------|-----------------|-----------------|
D|---------2-------|---------2-------|---------2-------|-4---------------|
A|-----------------|-----------------|-----------------|-----------------|
E|-0---------------|-0---------------|-0---------------|-----------------|
   Q   Q   Q   Q     Q   Q   Q   Q     Q   Q   Q   Q     W

G|-----------------|-----------------|-----------------|-----------------|
D|---------5-------|---------5-------|-----------------|-4---------------|
A|-----------------|-----------------|-----------------|-----------------|
E|-3---------------|-3---------------|-2---------------|-----------------|
   Q   Q   Q   Q     Q   Q   Q   Q     Q   Q   Q   Q     W

[Chorus 4]

G|-----------------|-----------------|-----------------|-----------------|
D|-----------------|-----------------|-----------------|-------2---------|
A|-2-2-2-2-5---2---|-2-2-2-2-5---2-5-|(5)--------------|---------5-4-----|
E|-----------------|-----------------|-----------------|-----------------|
   E E E E Q   Q     E E E E Q   E E   W                 Q.    E E Q.

G|-----------------|-----------------|-----------------|-----------------|
D|-----------------|-----------------|-----------------|-----------------|
A|-2-2-2-2-5---2---|-2-2-2-2-5---2---|-----------------|-----------------|
E|-----------------|-----------------|-----------------|-----------------|
   E E E E Q   Q     E E E E Q   E E   W                 W

G|-----------------|-----------------|-----------------|-----------------|
D|-----------------|-----------------|-----------------|-------2---------|
A|-2-2-2-2-5---2---|-2-2-2-2-5---2-5-|(5)--------------|---------5-4-----|
E|-----------------|-----------------|-----------------|-----------------|
   E E E E Q   Q     E E E E Q   E E   W                 Q.    E E Q.

G|-----------------|-----------------|-----------------|-----------------|
D|-----------------|-----------------|-----------------|-----------------|
A|-2-2-2-2-5---2---|-2-2-2-2-5---2---|-----------------|-----------------|
E|-----------------|-----------------|-----------------|-----------------|
   E E E E Q   Q     E E E E Q   E E   W                 W

G|-----------------|---2--4----------|
D|-----------------|-----------------|
A|-----------------|---------2-------|
E|-----------------|-----------------|
   W                 E E. E. E E Q

[Outro]

G|-----------------|-----------------|-----------------|-----------------|
D|-----------------|-----------------|-----------------|-----------------|
A|-2-2-2-2-2-2-----|---------------5-|(5)--------------|(5)--------------| x5
E|-----------------|-----------------|-----------------|-----------------|
   E E E E E E Q     H.          E E   W                 W

G|-----------------|-----------------|-----------------|-----------------|
D|-----------------|-----------------|-----------------|-----------------|
A|-2-2-2-2-2-2-----|---------------5-|(5)------------5-|(5)----5---------|
E|-----------------|-----------------|-----------------|-----------------|
   E E E E E E Q     H.          E E   E E Q   Q   E E   E Q   E H

G|-----------------|-----------------|-----------------|-----------------||
D|-----------------|-----------------|-----------------|-----------------||
A|-2-2-2-2-2-2-----|---------------2-|(2)--------------|-----------------||
E|-----------------|-----------------|-----------------|-----------------||
   E E E E E E Q     H.          E E   W                 W

            
            
Suggest correction
Creating personal tab
Creating personal tab
You can edit any tab online and save it as your Personal.

You can edit, replace or remove any tab part or add personal notes – all changes will be seen only by you.

Personal tabs can be accessed anytime from any device, even offline.
Learn more »
Give kudos to tab author, rate the tab!
1 2 3 4 5
comments
print report bad tab
guest
You may want to rate the tab now too:
select rating
Wanna post a correction for this tab? Suggest correction