Oops, an error
Loading. Please wait.

Do Me Baby bass

by Prince
592 views 1 this week
1 commentread comment
1 2 3 4 5
1 last vote to show rating
add to favorites
×
Save as Personal and add changes to this tab that will be seen only by you. Learn more ›
×
You can save this tab as Personal to edit and correct it or add notes. All changes will be seen only by you. Learn more »
launch autoscroll
font size
0
reset
guitar tuner
edit
Autoscroll
slow
fast
+/-
esc
set tempo
stop
Author
Difficulty
                                   Do Me, Baby
                                      Prince

Bass                                                              Prince 


As played by Prince

In 2/2

Intro

|-16\-----|-----------------|-----------------|-----------------|-----------------|
|-14\-----|-----------------|-----------------|-----------------|-----------------|
|---------|-7-----------7---|-7---------------|-6---------------|-----------------|
|---------|-----------------|-----------------|-------------4---|(4)------x-------|
  H         H.          Q     Q   Q   H         H.          Q     H       Q   Q

      P
|-----9-----------|-----------------|------------/13--|(13)-------------|
|-----------------|-----------------|-----------------|-----------------|
|-----------------|-----------------|-6---------------|-----------------|
|-0-----------0---|-0---------------|-----------------|-----------------|
  Q   Q   Q   Q     Q   Q   H         H.          Q     W

Verse 1

|-----------------|-----------------|-----------------|-----------------|
|-----------------|-----------------|-----------------|-----------------|
|-7---------------|-----------------|-6---------------|-----------------|
|-------------0---|-0---------------|------------\4---|(4)------x-------|
  H.          Q     Q   Q   H         H.          Q     H       H

      P                                                     P     P
|-----9-----------|-----------------|-----------------|-----4-----6/8\6-|
|-----------------|-----------------|--------/9--/6---|(6)--------4/6\4-|
|-----------------|-7---------------|-6---9-----------|-----------------|
|-0-----------0---|-----------------|-----------------|-----------------|
  Q   Q   Q   Q     Q   Q   H         H.      Q   Q     Q   Q   E E E E

      P
|-----9-----------|-----------------|-----------------|-----------------|
|-----------------|-----------------|-----------------|-----------------|
|-----------------|-----------------|-6---------------|---------4-2-----|
|-0-----------0---|-0---------------|-------------4---|(4)----------4-2-|
  E E E E Q   E E   Q   Q   H         H.          Q     Q   Q   E E E E

      P                                                         P
|-----9-----------|-----------------|-----------------|---------4-------|
|-----------------|-----------------|-------------6---|(6)--------2-4-2-|
|-----------------|-----------------|-6---------------|-----------------|
|-0-----------0---|-0---------------|-----------------|-----------------|
  E E E E Q   E E   W                 H.          Q     Q   Q   E E E E

      P                                                         
|-----9-----------|-----------------|-----------------|-----------------|
|-----------------|-----------------|-------------9---|(9)8/9\8/9\8/9\8-|
|-------------7---|-----------------|-6---------------|-----------------|
|-0---------------|-0---------------|-----------------|-----------------|
  E E E E Q   E E   Q   Q   H         H.          Q     Q   Q   E E E E

      P
|-----9-----------|-----------------|-----------------|-----------------|
|-----------------|-----------------|-----------------|-------------8-9-|
|-----------------|-----------------|-6---------------|---------6-------|
|-0-----------0---|-0---------------|-------------4---|(4)--------x-----|
  E E E E Q   E E   W                 H.          Q     Q   Q   E E E E

|-----------------|-----------------|-----------------|---------6/--8---|
|-----------------|-----------------|-------------6---|(6)------4/--6---|
|-----------------|-----------------|-6---------------|-----------------|
|-0-----------0---|-0---------------|-----------------|-----------------|
  Q   Q   Q   Q     Q   Q   H         H.          Q     H       E E E E

      P
|-----9-----------|-----------------|-----------------|-----------------|
|-----------------|-----------------|--------/9---6---|-4---------------|
|-----------------|-----------------|-6---4-----------|---------6\------|
|-0-----------0---|-0---------------|-----------------|-----------------|
  E E E E Q   E E   W                 Q   Q   Q   Q     H       H

Chorus 1

      P
|-----9-----------|-----------------|-----------------|-----------------|
|-----------------|-----------------|-----------------|-----------6-4-6-|
|-----------------|---------x\------|-6---------------|-----------------|
|-0-----------0-0-|-0-----------x-x-|-------------4---|(4)--------------|
  Q   E E Q   E E   Q   Q   Q   E E   H.          Q     Q   Q   E E E E

      P                                                         P
|-----9-----------|-----------------|-----------------|---------8-------|
|-----------------|-----------------|---------4---6---|(6)----------6\4-|
|-----------------|-----------------|-6---------------|-----------------|
|-0-----------0-0-|-0---------------|-----------------|-----------------|
  Q   E E Q   E E   W                 Q   Q   Q   Q     H       Q   E E

      P
|-----9-----------|-----------------|-----------------|-------8\6--/8---|
|-----------------|-----------------|-----------------|-------6\4--/6---|
|-----------------|-----------------|-6---------------|-----------------|
|-0-----------0-0-|-0------0--------|-------------4---|(4)--------------|
  Q   E E Q   E E   H      H          H.          Q     Q.    E Q   Q

      P
|-----9-----------|-----------------|-----------------|-----------------|
|-----------------|-----------------|------------/6---|(6)--------------|
|-----------------|-----------------|/6---------------|-----------------|
|-0-----------0-0-|-0-------0-------|-----------------|-----------------|
  Q   E E Q   E E   H       H         Q   Q   Q   Q     W

Interlude 1

|-----------------|-----------------|-----------------|-----------------|
|-----------------|-----------------|-----------------|-----------------|
|-----------------|-----------------|-6---------------|-----------------|
|-0---------------|(0)--------------|-------------4---|(4)------4\------|
  W                 W                 H.          Q     H       H

      P
|-----9-----------|-----------------|-6/8\6/8\6/8\6/8-|(8)--------------|
|-----------------|-----------------|-4/6\4/6\4/6\4/6-|(6)--------------|
|-----------------|-----------------|-----------------|-----------------|
|-0-----------0---|-0---------------|-----------------|-----------------|
  E E E E Q   E E   Q   Q   H         Q   Q   Q   Q     W

Verse 2

      P
|-----9-----------|-----------------|-----------------|-----------------|
|-----------------|-----------------|------------/6---|(6)--------------|
|-----------------|-----------------|/6---------------|-----------------|
|-0-----------0---|-0---------------|-----------------|-----------------|
  Q   E E Q   Q     E E Q   H         Q   Q   Q   Q     W

|-----------------|-----------------|-----------------|-----------------|
|-----------------|-----------------|-----4-------6---|-6---9-------9---|
|-----------------|-----------------|-6---------------|-----------------|
|-0-----------0---|-0---------------|-----------------|-----------------|
  H.          Q     W                 Q   Q   Q   Q     Q   Q   Q   Q  

|-----------------|-----------------|-----------------|-----------------|
|-----------------|-----------------|-----------------|-----------------|
|-7---------------|-----------------|-6---------------|-----------------|
|-----------------|-0---------------|-------------4---|-4-------------0-|
  Q   Q   H         W                 H.          E E   Q   Q   Q   E E

      P                                           P     P   P   S S S
|-----9-----------|-----------------|-------------8\--|-6/--8-----------|
|-----------------|-----------------|-------------6\--|-4/--6---x-x-x\--|
|-----------------|-----------------|-6---------------|-----------------|
|-0-----------0-0-|-0-------------0-|-----------------|-----------------|
  Q   E E Q   E E   E E H       E E   H.          Q     Q   Q   E E Q

      P
|-----9-----------|-----------------|-----------------|-----------------|
|-----------------|-----------------|------------/6---|(6)------x---x---|
|-----------------|-----------------|/6---------------|-----------------|
|-0-----------0---|-0---------------|-----------------|-----------------|
  Q   E E Q   E E   W                 Q   Q   Q   Q     H       Q   Q

      P                                                         P
|-----9-----------|-----------------|-----------------|-----------------|
|-----------------|-----------------|------------/6---|(6)------9-------|
|-----------------|-----------------|/6---------------|-----------------|
|-0-----------0---|-0---------------|-----------------|-----------------|
  Q   E E Q   E E   Q   Q   H         Q   Q   Q   Q     H       Q   E E

      P
|-----9-----------|-11--------------|-----------------|-----------------|
|-----------------|-----------------|-----------------|-----------------|
|-----------------|-----------------|/6---------------|-----------------|
|-0---------------|-----------------|------------/4---|(4)----------x-x-|
  Q   E E H         Q   Q   H         H.          Q     H       Q   E E

      P                               S   P   S   S S   S S P       P
|-----9-----------|-----------------|-----8-----------|-----13------16--|
|-----------------|-----------------|-----------------|-----------------|
|-----------------|-----------------|/6-------6---9-9-|-9-11----x-x-----|
|-0-----------0---|-0-----------0---|-----------------|-----------------|
  Q   E E Q   E E   H.          Q     Q   Q   Q   E E   E E E E E E Q

Chorus 2

      P
|-----9-----------|-----------------|-----------------|-----------------|
|-----------------|-----------------|------------/6---|(6)--4---x---x---|
|-----------------|-----------------|/6---------------|-----------------|
|-0-----------0---|-0---------------|-----------------|-----------------|
  Q   E E Q   E E   W                 Q   Q   Q   Q     Q   Q   Q   Q

      P                               S   P   S   P     S   P   P   P
|-----9-----------|-----------------|-----8-------11--|-----11----------|
|-----------------|-----------------|-----------------|---------13--11--|
|-----------------|-----------------|-6-------6/9-----|-11------11--9---|
|-0-----------0---|-0---------------|-----------------|-----------------|
  Q   E E Q   E E   W                 Q   Q   E E Q     Q   Q   Q   Q

      P
|-----9-----------|-----------------|-----------------|-----------------|
|-----------------|-----------------|-----------------|-----------------|
|-----------------|-----------------|-6---------------|-------------7\--|
|-0-----------0---|-0---------------|-------------4---|(4)--7-----------|
  Q   E E Q   E E   Q   Q   H         Q   Q   Q   Q     Q   Q   Q   Q

      P
|-----9-----------|-----------------|-----------------|-----------------|
|-----------------|-----------------|---------4--/6---|(6)--------------|
|-----------------|-----------------|-6---------------|-----------------|
|-0-----------0---|(0)------0-------|-----------------|-----------------|
  Q   E E Q   E E   H       H         H       Q   Q     W

Interlude 2

|-----------------|-----------------|-----------------|-----------------|
|-----------------|-----------------|-----------------|-----------------|
|-----------------|-----------------|-6---------------|-----------------|
|-0---------------|-----------------|-----------------|-----------------|
  Q   Q   H         W                 Q   Q   H         W

|-----------------|---------16\-----|-----------------|-----------------|
|-----------------|-----------------|-----------------|-----------------|
|-----------------|-----------------|-6---------------|-----------------|
|-0---------------|-----------------|-------------4---|(4)--------------|
  Q   Q   H         H       H         H.          Q     W

Chorus 3

      P
|-----9-----------|-----------------|-----------------|-----------------|
|-----------------|-----------------|-----------4-----|-----------------|
|-----------------|-----------------|-6---------------|-----------------|
|-0-------0---0---|-0---------------|-------------4---|(4)--7---x-x-x---|
  Q   E E Q   Q     Q   Q   H         H       E E Q     Q   E E E E Q

      P
|-----9-----------|-----------------|-----------------|-----------------|
|-----------------|-----------------|-----4--/9---6---|(6)--9---4/6\4/6-|
|-----------------|-----------------|-6---------------|---------4/6\4/6-|
|-0-----------0---|-0---------------|-----------------|-----------------|
  Q   E E Q   Q     Q   Q   H         Q   Q   Q   Q     Q   Q   E E E E

      P
|-----9-----------|-----------------|-----------------|-----------------|
|-----------------|-----------------|-----------------|-----------------|
|-----------------|-----------------|-6---------------|-----------------|
|-0-------0---0---|-0---------------|-------------4---|(4)----------x---|
  Q   E E Q   Q     Q   Q   H         H.          Q     H.          Q

      P                               S   P   S   P     S  P   S S S 
|-----9-----------|-----------------|-----11------11--|----13-----------|
|-----------------|-----------------|-----------------|-----------------|
|-----------------|-----------------|-6/------9/------|-11-----6-6-6----|
|-0-------0---0---|-0---------------|-----------------|-----------------|
  Q   E E Q   Q     Q   Q   H         Q   E E Q   E E   Q  E E E E Q

|-----------------|-----------------|-----------------|-----------------|
|-----------------|-----------------|-----------4-----|-----------------|
|-----------------|-----------------|-6---------------|-----------------|
|-0-----------0---|-0---------------|-------------4---|(4)--7---x-x-x-x-|
  H.          Q     Q   Q   H         H       E E Q     Q   E E E E E E

      P
|-----9-----------|-------------8-9-|-11--------------|-----------------|
|-----------------|---------9-11----|---------11------|-----------------|
|-----------------|-----------------|-----------9-----|-----------------|
|-0-------0---0---|-0---------------|-------------4---|(4)------------x-|
  Q   E E Q   Q     H       E E E E   H       E E Q     Q   E E E E E E

      P
|-----9-----------|-----------------|-----------------|-----------------|
|-----------------|-----------------|-------------6---|(6)--------------|
|-----------------|-----------------|/6---------------|-----------------|
|-0-------0---0---|-0---------------|-----------------|-----------------|
  Q   E E Q   Q     Q   Q   H         H.          Q     H       H

      P                               S   P S     P     P       P
|-----9-----------|-----------------|-----11------11--|-14\-13--9\--6---|
|-----------------|-----------------|-----------------|-----------------|
|-----------------|-----------------|-6-----6/9-------|-----------------|
|-0-----------0---|-0---------------|-----------------|-----------------|
  Q   E E Q   E E   W                 Q   E E Q   E E   Q   Q   Q   Q

Interlude 3

|-----------------|-----------------|------------/13--|(13)-11-----/8---|
|-----------------|-----------------|-----------------|-----------------|
|-----------------|-----------------|/6---------------|-----------------|
|-0-----------0---|-0---------------|-----------------|-----------------|
  Q   H       Q     W                 H.          Q     Q   Q   Q   Q

      P
|-----9-----------|-----------------|-----------------|-----------------|
|-----------------|-----------------|-----------------|-----------------|
|-----------------|-----------------|/6---------------|-----------------|
|-0-----------0---|-0---------------|-------------4---|(4)------4-4-4-4-|
  Q   E E Q   E E   W                 H.          Q     H       E E E E

  P
|-9---------------|-----------------|-----------------|-----------------|
|-----------------|-----------------|-----------------|-----------------|
|-----------------|-----------------|/6---------------|-----------------|
|-------------0---|-0---------------|------------\4---|(4)--------------|
  E E Q   Q   Q     W                 H.          Q     W

                                                  P
|-----------------|-----------------|------------/8---|(8)--------------|
|-----------------|-----------------|------------/6---|(6)--------------|
|-----------------|-----------------|-6---------------|-----------------|
|-0-----------0---|-0---------------|-----------------|-----------------|
  Q   H       Q     Q   Q   H         H.          Q     H       H

Spoken Word

      P
|-----9-----------|-----------------|-----------------|-----------------|
|-----------------|-----------------|-----------------|-----------------|
|-----------------|-----------------|/6---------------|-----------------|
|-0---------------|-0---------------|-------------4---|(4)--7-----------|
  Q   E E Q   Q     Q   Q   H         H.          Q     Q   Q   H

      P
|-----9-----------|-----------------|-----------------|--------/8-------|
|-----------------|-----------------|---------4---6---|(6)--9-----------|
|-----------------|-----------------|-6---------------|-----------------|
|-0---------------|-0---------------|-----------------|-----------------|
  Q   E E Q   Q     Q   Q   H         H.      E E Q     Q   Q   H

      P
|-----9-----------|-----------------|-----------------|-----------------|
|-----------------|-----------------|-----------------|-----------------|
|-----------------|-----------------|/6---------------|-----------------|
|-0-----------0---|-0---------------|-------------4---|(4)--7-------x-x-|
  Q   E E Q   Q     Q   Q   H         H.          Q     Q   Q   Q   E E


|-----------------|-----------------|-----------------|---------6/8\6/8-|
|-----------------|-----------------|-------------6---|(6)------4/6\4/6-|
|-----------------|-----------------|-6---------------|-----------------|
|-0-----------0---|-0---------------|-----------------|-----------------|
  H       Q   Q     Q   Q   H         H.          Q     H       E E E E

      P
|-----9-----------|-----------------|-----------------|-----------------|
|-----------------|-----------------|-----------------|-----------------|
|-----------------|-----------------|/6---------------|-----------------|
|-0-----------0---|-0---------------|-------------4---|(4)--7---x-x-x-4-|
  Q   E E Q   Q     Q   Q   H         H.          Q     Q   Q   E E E E

      P                                                     P
|-----9-----------|-----------------|-----------------|-----9-----------|
|-----------------|-----------------|-------------6---|(6)------4/6\4/6-|
|-----------------|-----------------|/6---------------|-----------------|
|-0-----------0---|-0---------------|-----------------|-----------------|
  Q   E E Q   Q     Q   Q   H         H.          Q     Q   E E E E E E

      P
|-----9-----------|-----------------|-----------------|-----------------|
|-----------------|-----------------|-----------------|-----------------|
|-----------------|-----------------|/6---------------|-----------------|
|-0-----------0---|-0---------------|-------------4---|(4)--------------|
  Q   E E Q   Q     Q   Q   H         H.          Q     W

      P
|-----9-----------|-----------------|-----8-------11--|-----13\---------|
|-----------------|-----------------|-----------------|-----------------|
|-----------------|-----------------|-6-------9-------|/11------6-6-6-6-|
|-0-----------0---|-0---------------|-----------------|-----------------|
  Q   E E Q   Q     W                 Q   Q   Q   Q     Q   Q   E E E E

      P
|-----9-----------|-----------------|-----------------|-----------------|
|-----------------|-----------------|------------/6---|(6)------9---6---|
|-----------------|-----------------|-6---------------|---------------6-|
|-0-----------0---|-0---------------|-----------------|-----------------|
  Q   E E Q   Q     Q   Q   H         H.          Q     H       Q   E E

      P
|-----9-----------|-----------------|-----------------|---------6/8\6---|
|-----------------|-----------------|--------4---/6---|(6)------6/8\6---|
|-----------------|-----------------|-6---------------|-----------------|
|-0-----------0---|-0---------------|-----------------|-----4-----------|
  Q   E E Q   Q     Q   Q   H         H      Q    Q     Q   Q   E E Q

"I'm not gonna stop until the war is over"

      P                                                           P
|-----9-----------|-----------------|-----------------|-----------------|
|-----------------|-----------------|-----------------|-----------9/8---|
|-----------------|-----------------|-6---------------|-----------------|
|-0-----------0---|-0---------------|-------------4---|(4)--------------|
  Q   E E Q   Q     W                 H.          Q     H       E E Q

      P
|-----9-----------|-----------------|-----8-------11--|-----13\---------|
|-----------------|-----------------|-----------------|-----------------|
|-----------------|-----------------|-6-------9-9-----|/11------6---6---|
|-0-------0---0---|-0---------------|-----------------|-----------------|
  Q   E E Q   Q     Q   Q   H         Q   Q   E E Q     Q   Q   Q   Q

      P
|-----9-----------|-----------------|-----------------|-----------------|
|-----------------|-----------------|-----------------|-----------------|
|-----------------|-----------------|/6---------------|---------2-------|
|-0-----------0---|-0---------------|------------\4---|(4)--------4-2-4-|
  Q   E E Q   Q     W                 H.          Q     H       E E E E

      P
|-----9-----------|-----------------|-----------------|-----------------|
|-----------------|-----------------|------------/6---|(6)--------------|
|-----------------|-----------------|/6---------------|-----------------|
|-0-----------0---|-0---------------|-----------------|-----------------|
  Q   E E Q   Q     W                 H.          Q     W

      P
|-----9-----------|-----------------|-----------------|-----8-----6/8---|
|-----------------|-----------------|------------/6---|(6)--------4/6---|
|-----------------|-----------------|-6---------------|-----------------|
|-0-------0---0---|-0---------------|-----------------|-----------------|
  Q   E E Q   Q     Q   Q   H         H.          Q     Q   E Q   E Q

      P                               S   P   S S P     S S P   P
|-----9-----------|-----------------|-----8-------11--|-----13----------|
|-----------------|-----------------|-----------------|---------13------|
|-----------------|-----------------|-6-------9-9-----|-9-11------------|
|-0-----------0---|-0-----------x-0-|-----------------|-----------------|
  Q   E E Q   Q     Q   Q   Q   E E   Q   Q   E E Q     E E Q   H

Outro

|-----------------|-----------------|-----------------|-----------------|
|-11--------------|(11)-------------|(11)-------------|(11)-------------|
|-----------------|-----------------|-----------------|-----------------|
|-----------------|-----------------|-----------------|-----------------|
  W                 W                 W                 W

|-----------------|-----------------|-----------------|-----------------|
|-9---------------|(9)--------------|(9)--------------|(9)--------------|
|-----------------|-----------------|-----------------|-----------------|
|-----------------|-----------------|-----------------|-----------------|
  W                 W                 W                 W

|-----------------|-----------------|-----------------|-----------------|
|-6---------------|(6)--------------|(6)--------------|(6)--------------|
|-----------------|-----------------|-----------------|-----------------|
|-----------------|-----------------|-----------------|-----------------|
  W                 W                 W                 W

|-----------------|-----------------|-----------------|-----------------|
|-4---------------|(4)--------------|(4)--------------|(4)--------------|
|-----------------|-----------------|-----------------|-----------------|
|-----------------|-----------------|-----------------|-----------------|
  W                 W                 W                 W

|-----------------|-----------------|-----------------|-----------------||
|-----------------|-----------------|-----------------|-----------------||
|-7\2-------------|(2)--------------|(2)--------------|(2)--------------||
|-----------------|-----------------|-----------------|-----------------||
  E E H.            W                 W                 W



Key to rhythm notations:

W - Whole Note/Semi-Brieve
H - Half Note/Minim
Q - Quarter Note/Crotchet       Q. - Dotted Quarter Note
E - Eight Note/Quaver           E. - Dotted Eight Note
S - Sixteenth Note/Semi-Quaver  S. - Dotted Sixteenth Note
Suggest correction
Creating personal tab
Creating personal tab
You can edit any tab online and save it as your Personal.

You can edit, replace or remove any tab part or add personal notes – all changes will be seen only by you.

Personal tabs can be accessed anytime from any device, even offline.
Learn more »
Give kudos to tab author, rate the tab!
1 2 3 4 5
comments
print report bad tab
1 comment total.
0 reply
teodorwenno 38 Sep 27, 2016 09:24 AM

Great tab at most parts, but you've laid down som eincredible effort into this, i see. Well done!

guest
You may want to rate the tab now too:
select rating
Wanna post a correction for this tab? Suggest correction