Oops, an error
Loading. Please wait.

Gotta Broken Heart Again Live Chords

version 1
version 1

Whole song

2,019 views 114 this week
no commentswrite comment
1 2 3 4 5
please rate
add to favorites
launch autoscroll
font size
0
reset
transpose
0
reset
simplify chords
display chords
guitar tuner
Tab Pro tools
  • play this tab
  • loop segment
  • change instrument
  • show fretboard
  • metronome
×
Best way to learn
"Gotta Broken Heart Again Live"
Autoscroll
slow
fast
+/-
esc
set tempo
stop
Difficulty
intermediate
-------------------------------------------------------------------------------Gotta 
Heart Again(Live at the Aladdin) - Prince

-------------------------------------------------------------------------------
Tabbed by:geoff jonz
Email:geoffjonz67@comcast.net

Tuning:Standard
 Intro
    Dmaj7  F#m7  G   E7#9  A6     (two times)

e|----2-----2----3-----3----2---------------------------------------------------|
B|----2-----2----3-----3----2---------------------------------------------------|
G|----2-----2----4-----4----2---------------------------------------------------|
D|----0-----2----5-----2----2---------------------------------------------------|
A|----x-----4----5-----x----x---------------------------------------------------|
E|----x-----2----3-----x----x---------------------------------------------------|

     Am7/addC   D     Gmaj7  Ab dim7    Em 
F#m / G / Bb7 / A6
e|------7-------5-------3-------4--------0----2----3----6----5---------------|
B|------5-------7-------3-------3--------0----2----3----6----7---------------|
G|------5-------7-------4-------4--------0----2----4----7----6---------------|
D|------5-------7-------4-------3--------2----4----5----6----5---------------|
A|------x-------5-------5-------x--------2----4----5----8----6---------------|
E|------5-------x-------3-------4--------0----2----3----6----5---------------|
comments
We did not receive enough feedback on this tab! Please rate:
print report bad tab
1 2 3 4 5
I want to post or [tab]
guest
You may want to rate the tab now too:
select rating
Please do not post tabs as comments. Select "correction" instead!