Oops, an error
Loading. Please wait.

Im Yours bass

by Prince
136 views 1 this week
no commentswrite comment
1 2 3 4 5
2 more votes to show rating
add to favorites
×
Save as Personal and add changes to this tab that will be seen only by you. Learn more ›
×
You can save this tab as Personal to edit and correct it or add notes. All changes will be seen only by you. Learn more »
launch autoscroll
font size
0
reset
guitar tuner
edit
Autoscroll
slow
fast
+/-
esc
set tempo
stop
Author
                                    I'm Yours
                                      Prince

Bass                                                                Prince 

As played by Prince

Intro

G|---4-6---4-6-6-6-4-|---9---9-4-6-----|---4-6---4-6-6-7-6-4-|---9----4-6-----|
D|-------------4-4-2-|-----------------|-------------4-5-4-2-|----------------|
A|-4-----4-----------|-7---7-----------|-4-----4-------------|-7---7\---------|
E|-------------------|-----------------|---------------------|----------------|
   E S E S S E.E S E.  E S E S S E.Q.    E S E S S E.S S S E.  E S E. S E.Q.

G|-----------------|-----------------|-----------------|-----------------|
D|-----------------|-----------------|-----------------|-----------------|
A|-4---------------|(4)--------------|-0---------------|(0)--------------|
E|-----------------|-----------------|-----------------|-----------------|
   W                 W                 W                 W

G|-----------------|-----------------|-----------------|-----------------|
D|-----------------|-----------------|-----------------|-----------------|
A|-4---------------|(4)--------------|-0---------------|-0-0-0-0-0-0-0---|
E|-----------------|-----------------|-----------------|-----------------|
   W                 W                 W                 E E E E E E E

G|---------6-------|---------6---------|---------6---------|------9-11-9-------|
D|-----------------|-------------------|-------------------|-9-11--------------|
A|-4\----4-----0---|-4\----4-----0-0---|-4\----4-----0-0---|---------------2---|
E|-----------------|-------------------|-------------------|-------------------|
   Q   E S S E Q.    Q   E S S E E Q      Q   E S S E E Q    S E  E E  S E Q.

Verse 1

G|---------6---------|---------6---------|---------6---------|------9-11-9-------|
D|-------------------|-------------------|-------------------|-9-11--------------|
A|-4\----4-----0-----|-4\----4-----0-0---|-4\----4-----0-0-0-|---------------0---|
E|-------------------|-------------------|-------------------|-------------------|
   Q   E S S E E E E   Q   E S S E E Q     Q   E S S E E E E   S E  E E  S E Q.

G|-----------------|
D|-----------------|
A|(0)--------------|
E|-----------------|
   W

G|---------6---------|---------6---------|---------6---------|------9-11-9-------|
D|-------------------|-------------------|-------------------|-9-11--------------|
A|-4\----4-----0-0-0-|-4\----4-----0-0-0-|-4\----4-----0-0-0-|---------------0---|
E|-------------------|-------------------|-------------------|-------------------|
   Q   E S S E E E E   Q   E S S E E E E   Q   E S S E E E E   S E  E E  S E Q.

G|---------6---------|---------6---------|---------6---------|------9-11-9-------|
D|-------------------|-------------------|-------------------|-9-11--------------|
A|-4\----4-----0-0-0-|-4\----4-----0-0-0-|-4\----4-----0-0-0-|---------------2---|
E|-------------------|-------------------|-------------------|-------------------|
   Q   E S S E E E E   Q   E S S E E E E   Q   E S S E E E E   S E  E E  S E Q.

Chorus 1

G|-----------------|-----------------|-----------------|-------------6-4-|
D|-----------------|-----------------|-----------------|-----------------|
A|-----------------|-----------------|-----------------|-4-4---2-2-------|
E|-0-0---0---0---0-|-4-4---5---5-x---|-4-4---4---4---4-|-----------------|
   E E E E E E E E   E E E E E E E E   E E E E E E E E   E E E E E E E E

G|-----------------|-----------------|-----------------|-----------------|
D|-----------------|-----------------|-----------------|-----------------|
A|-----------------|-----------------|-----------------|-----------------|
E|-0-0---0---0---0-|-4-4---5---5---5-|-5-5---5---5---5-|-4-4-4-4-4-4-----|
   E E E E E E E E   E E E E E E E E   E E E E E E E E   S E E E S E Q.

Solo 1

G|---------6---------|---------6---------|---------6---------|------9-11-9-------|
D|-------------------|-------------------|-------------------|-9-11--------------|
A|-4\----4-----0-0-0-|-4\----4-----0-0-0-|-4\----4-----0-0-0-|---------------2---|
E|-------------------|-------------------|-------------------|-------------------|
   Q   E S S E E E E   Q   E S S E E E E   Q   E S S E E E E   S E  E E  S E Q.

   2/4
G|---------|
D|---------|
A|(2)------|
E|---------|
   H

Verse 2

G|---------6---------|---------6---------|---------6---------|------9-11-9-------|
D|-------------------|-------------------|-------------------|-9-11--------------|
A|-4\----4-----0-0-0-|-4\----4-----0-0-0-|-4\----4-----0-0-0-|---------------0---|
E|-------------------|-------------------|-------------------|-------------------|
   Q   E S S E E E E   Q   E S S E E E E   Q   E S S E E E E   S E  E E  S E Q.

G|---------6---------|---------6---------|---------6---------|------9-11-9-------|
D|-------------------|-------------------|-------------------|-9-11--------------|
A|-4\----4-----0-0-0-|-4\----4-----0-0-0-|-4\----4-----0-0-0-|---------------2---|
E|-------------------|-------------------|-------------------|-------------------|
   Q   E S S E E E E   Q   E S S E E E E   Q   E S S E E E E   S E  E E  S E Q.

Chorus 2

G|-----------------|-----------------|-----------------|-------------6-4-|
D|-----------------|-----------------|-----------------|-----------------|
A|-----------------|-----------------|-----------------|-4-4---2-2-------|
E|-0-0---0---0---0-|-4-4---5---5-x---|-4-4---4---4---4-|-----------------|
   E E E E E E E E   E E E E E E E E   E E E E E E E E   E E E E E E E E

G|-----------------|-----------------|-----------------|-----------------|
D|-----------------|-----------------|-----------------|-----------------|
A|-----------------|-----------------|-----------------|-----------------|
E|-0-0---0---0---0-|-4-4---5---5---5-|-5-5---5---5---5-|-4-4-4-4-4-4-----|
   E E E E E E E E   E E E E E E E E   E E E E E E E E   S E E E S E Q.

Solo 2

G|---------6---------|---------6---------|---------6---------|------9-11-9-------|
D|-------------------|-------------------|-------------------|-9-11--------------|
A|-4\----4-----0-0-0-|-4\----4-----0-0-0-|-4\----4-----0-0-0-|---------------2---|
E|-------------------|-------------------|-------------------|-------------------|
   Q   E S S E E E E   Q   E S S E E E E   Q   E S S E E E E   S E  E E  S E Q.

   2/4
G|---------|
D|---------|
A|(2)------|
E|---------|
   H

Interlude

G|-----------------|-----------------|-----------------|-----------------|
D|-----------------|-----------------|-----------------|-----------------|
A|-4---------------|(4)--------------|-0---------------|(0)--------------|
E|-----------------|-----------------|-----------------|-----------------|
   W                 W                 W                 W

G|-----------------|-----------------|-----------------|-----------------|
D|-----------------|-----------------|-----------------|-----------------|
A|-4---------------|(4)--------------|-0---------------|-0-0-0-0-0-0-0---|
E|-----------------|-----------------|-----------------|-----------------|
   W                 W                 W                 E E E E E E E

Solos

G|---------6---------|---------6---------|---------6---------|------9-11-9-------|
D|-------------------|-------------------|-------------------|-9-11--------------|
A|-4\----4-----0-0-0-|-4\----4-----0-0-0-|-4\----4-----0-0-0-|---------------0---|
E|-------------------|-------------------|-------------------|-------------------|
   Q   E S S E E E E   Q   E S S E E E E   Q   E S S E E E E   S E  E E  S E Q.

G|-9-6-9-6-4---11-6-9---|-9-6-9-6-4---11-6-9---|-9-6-9-6-4---11-6-9---|
D|-----------4----7-7-7-|-----------4----7-7-7-|-----------4----7-7-7-|
A|----------------------|----------------------|----------------------|
E|----------------------|----------------------|----------------------|
   S S E S S E E  E E     S S E S S E E  E E     S S E S S E E  E E

G|-11-11-11-9---11-11-9-7-6-4-----------|
D|------------9---------------7-6-4-----|
A|----------------------------------0---|
E|--------------------------------------|
   T  T  S  S S T  T  T T T T T T E Q.

G|---6-----6\--------|---------6---------|---------6---------|------9-11-9-------|
D|-------------------|-------------------|-------------7-7-7-|-9-11--------------|
A|-4-----4-----0-0-0-|-4\----4-----0-0-0-|-4\----4-----------|---------------0---|
E|-------------------|-------------------|-------------------|-------------------|
   S S Q S S E E E E   Q   E S S E E E E   Q   E S S E E E E   S E  E E  S E Q.
                                                                 _____
                                                                |  3  |
G|-18-16-16----------------|------------------------------------------------|
D|----------18-16-18-14-11-|-11-14-16-14-11-14-11-9-11-14-18-14-14-14-14-12-|
A|-------------------------|------------------------------------------------|
E|-------------------------|------------------------------------------------|
   E  E  E  E  E  E  E  E    S  S  S  S  T  S. S  S S  S  S  S  S  S  S  E

G|-----------------------------------|-----------------------|
D|-12-11-12-9-12-11-12-11-12-9-12-11-|-9-----9-------9-------|
A|-----------------------------------|---9-----9---9-----0---|
E|-----------------------------------|-----7-----7-----------|
   E  S  S  E S  S  E  S  S  E S  S    S S S S S S S S E Q.

G|---------6---------|---------6---------|---------6---------|------9-11-9-------|
D|-------------------|-------------------|-------------------|-9-11--------------|
A|-4\----4-----0-----|-4\----4-----0---0-|-4\----4-----0-----|---------------0---|
E|-------------------|-------------------|-------------------|-------------------|
   Q   E S S E Q.      Q   E S S E E E E   Q   E S S E Q.      S E  E E  S E Q.

                                                               Tr...............
G|-4-4-2---4---2-----|-4-4-2---4---2-----|-4-4-2---4---2-----|-11-9------11-9----9-----|
D|-4-4-2-4-4---2-----|-4-4-2-4-4---2-----|-4-4-2-4-4---2-----|------11-9------11-------|
A|-------4-----------|-------4-----------|-------4-----------|---------------------0---|
E|-------------------|-------------------|-------------------|-------------------------|
   S E E E S E Q.      S E E E S E Q.      S E E E S E Q.      S  S S  S S  S S  E Q.

G|---------6---------|---------6---------|---------6---------|------9-11-9-------|
D|-------------------|-------------------|-------------------|-9-11--------------|
A|-4\----4-----0-----|-4\----4-----0---0-|-4\----4-----0-----|---------------0---|
E|-------------------|-------------------|-------------------|-------------------|
   Q   E S S E Q.      Q   E S S E E E E   Q   E S S E Q.      S E  E E  S E Q.


G|---6---------------|---6---6-6---------|---x-x-x---x---x-------|------9-11-9-------|
D|-------------------|-------------------|-----------------------|-9-11--------------|
A|-4-----x-x---0-----|-4-----------0-----|-x-------x---x-----0---|---------------0---|
E|-------------------|-------------------|-----------------------|-------------------|
   S S Q S S E Q.      S S Q S S E Q.      S S S S S S S S E Q.    S E  E E  S E Q.

G|---------6---------|---------6---------|---------6---------|------9-11-9-------|
D|-------------------|-------------------|-------------------|-9-11--------------|
A|-4\----4-----0-----|-4\----4-----0---0-|-4\----4-----0-----|---------------0---|
E|-------------------|-------------------|-------------------|-------------------|
   Q   E S S E Q.      Q   E S S E E E E   Q   E S S E Q.      S E  E E  S E Q.

G|-11-9----11-9----11-9----11-9-----|-11-9----11-9---------------------|
D|-----11-9----11-9----11-9----11-9-|-----11-9----11-9---------------2-|
A|----------------------------------|----------------------------------|
E|----------------------------------|------------------0-2-3-2-0-2-0---|
    S S S S S S S S S S S S S S S S    S S S S S S S S S S S S S S S S

G|-4-4-7-6-2-4-1---2-4-2-----------|---------------------12-11-12-12---|
D|---------------2-------4-2-4-----|-----------------------------------|
A|-----------------------------5-2-|-------0---0-1-2-2-2-------------9-|
E|---------------------------------|-0-2-3---3-------------------------|
   S S S S S S S S S S S S S S S S   S S S S S S S S S S S  S  S. T  E

G|---------6---------|---------6---------|---------6---------|------9-11-9-------|
D|-------------------|-------------------|-------------------|-9-11--------------|
A|-4-4\--4-----0-----|-4-4\--4-----0---0-|-4-4\--4-----0-----|---------------0---|
E|-------------------|-------------------|-------------------|-------------------|
   E E E S S E Q.      E E E S S E E E E   E E E S S E Q.      S E  E E  S E Q.

G|-------------------|-------------------|-------------------|-------------------|
D|-------------------|-------------------|-------------------|-------------------|
A|-4-----------------|(4)----------------|-4-----------------|(4)----------------|
E|-------------------|-------------------|-------------------|-------------------|
   W                   W                   W                   W

G|-------------------|-------------------|-------------------|-------------------|
D|-------------------|-------------------|-------------------|-------------------|
A|-4-----------------|(4)----------------|-4-----------------|(4)----------------|
E|-------------------|-------------------|-------------------|-------------------|
   W                   W                   W                   W

G|-------------------||
D|-------------------||
A|-4\----------------||
E|-------------------||
   W

Key to rhythm notations:

W - Whole Note/Semi-Brieve
H - Half Note/Minim
Q - Quarter Note/Crotchet       Q. - Dotted Quarter Note
E - Eight Note/Quaver           E. - Dotted Eight Note
S - Sixteenth Note/Semi-Quaver  S. - Dotted Sixteenth Note
Suggest correction
Creating personal tab
Creating personal tab
You can edit any tab online and save it as your Personal.

You can edit, replace or remove any tab part or add personal notes – all changes will be seen only by you.

Personal tabs can be accessed anytime from any device, even offline.
Learn more »
Give kudos to tab author, rate the tab!
1 2 3 4 5
comments
print report bad tab
guest
You may want to rate the tab now too:
select rating
Wanna post a correction for this tab? Suggest correction