Oops, an error
Loading. Please wait.

Jack U Off chords

by Prince
133 views 6 this week
no commentswrite comment
1 2 3 4 5
3 more votes to show rating
add to favorites
×
Save as Personal and add changes to this tab that will be seen only by you. Learn more ›
×
You can save this tab as Personal to edit and correct it or add notes. All changes will be seen only by you. Learn more »
launch autoscroll
font size
0
reset
transpose
0
reset
simplify chords
display chords
guitar tuner
edit
Autoscroll
slow
fast
+/-
esc
set tempo
stop
Author
Difficulty
About this tab version
Chords with sample guitar figure. Was this info helpful? Yes No
Strumming
There is no strumming pattern for this song yet. and get +5 IQ
[Intro]
   A5
E|-----------------|-----------------|-----------------|-----------------|
B|-----------------|-----------------|-----------------|-----------------|
G|-2---2---2---4-2-|-2---2---2---4-2-|-2---2---2---4-2-|-2---2---2---4-2-|
D|-2---2---2---2-2-|-2---2---2---2-2-|-2---2---2---2-2-|-2---2---2---2-2-|
A|-0---4-----------|-0---4-----------|-0---4-----------|-0---4-----------|
E|-----------------|-----------------|-----------------|-----------------|

   E5                                  A5
E|-----------------|-----------------|-----------------|-----------------|
B|-----------------|-----------------|-----------------|-----------------|
G|-----------------|-----------------|-2---2---2---4-2-|-2---2---2---4-2-|
D|-2---2---2---4-2-|-2---2---2---4-2-|-2---2---2---2-2-|-2---2---2---2-2-|
A|-2---2---2---2-2-|-2---2---2---2-2-|-0---4-----------|-0---4-----------|
E|-0---4-----------|-0---4-----------|-----------------|-----------------|


[Verse 1]
A5
If you're looking for somewhere to go
A5
Thought I'd take you to a movie show
E5                                    A5
Sitting in the back and I'll jack you off
A5
I can't give you everything you want
A5
But I can take you to a restaurant
E5                                 A5
If you're not hungry I'll jack you off
A5
If your man ain't no good
A5
Come on over to my neighborhood
       E5                                 A5
We can jump in the sack and I'll jack you off
A5
If you're tired of the masturbater
A5
Little girl, we can go on a date 
    E5                         A5
And if you like, I'll jack you off

[Chorus]
              E5            A5
I'll jack you off, jack you off
              E5            A5
I'll jack you off, jack you off

[Verse 2]
A5
I only do it for a worthy cause
A5
Virginity or menopause
               E5                                 A5
You'll have an instant heart attack if I jack you off
A5
If you really, really want to be a star
A5
We got to do it in your mamma's car
E5                                 A5
Naked in a Cadillac, I'll jack you off
A5
If we can't find no place to go
A5
Girl, I'll take you to a movie show
       E5                                A5
We can sit in the back and I'll jack you off

[Chorus 2]
              E5            A5
I'll jack you off, jack you off
              E5            A5
I'll jack you off, jack you off

[Solo]
A5 E5 A5 x2

[Verse 3]
N.C.
If you aren't chicken baby, come here
N.C.
If you're good I'll even let you steer
                                         D7 Eb7 E7
As a matter of fact, you can jack me off

[Outro]

A5 E5              A5  D7 Eb7 E7
     I'll jack you off

A5 E5              A5  D7 Eb7 E7
     I'll jack you off

A5 D7 Eb7 E7 A5 D7 Eb7 E7 A7

            
            
Suggest correction
Creating personal tab
Creating personal tab
You can edit any tab online and save it as your Personal.

You can edit, replace or remove any tab part or add personal notes – all changes will be seen only by you.

Personal tabs can be accessed anytime from any device, even offline.
Learn more »
Give kudos to tab author, rate the tab!
1 2 3 4 5
comments
print report bad tab
guest
You may want to rate the tab now too:
select rating
Wanna post a correction for this tab? Suggest correction