Oops, an error
Loading. Please wait.

Kiss Tab

version 1
version 1

Whole song

Interactive

78,970 views 643 this week
no commentswrite comment
1 2 3 4 5
accurate
x 8
add to favorites
launch autoscroll
font size
0
reset
how to read this tab
guitar tuner
Tab Pro tools
  • play this tab
  • loop segment
  • change instrument
  • show fretboard
  • metronome
×
Best way to learn
"Kiss"
Autoscroll
slow
fast
+/-
esc
set tempo
stop
Difficulty
intermediate
From: michael.terpstra@canrem.com (Michael Terpstra)
From: MICHAEL MEDINA
Guitar solo from: Matthias Ottke (mat2k@gmx.net)

Song: Kiss
Artist: Prince


This is the opening chord:E9(9no3rd)
E-12--
B-12--
G-11--
D-12--
A-X---
E-X---


The verses are played over an A7 and a D7

                   A7                               D7
                 e--0---I                         I--2---|I
                 B--2---I                         I--1---|I
                 G--0---I                         I--2---|I
                 D--2---I                         I--0---|I
                 A--0---I                         I--0---|I
                 E--0---I                         I--0---|I

U don't have 2 B beautiful....... U don't need experience....
U got 2 not talk dirty, baby..... I want 2 B your fantasy....
       Women not girls.........U don't have 2 watch Dynasty...

                                     A7
and back to the A7 for "leave it all up 2 me..."

chorus
        E7     D7      E7'    D7
     e--0--I---2---I---0---I---2----|I
     B--0--I---1---I---3---I---1----|I
     G--1--I---2---I---1---I---2----|I
     D--0--I---0---I---2---I---0----|I
     A--2--I---0---I---2---I---0----|I
     E--0--I---0---I---0---I---0----|I
                                                   E9sus4
..2 B rich...cool....sign...extra time and your..............Kiss

During the guitar solo and the ending (after the last Kiss) an
    A7+9           chord is played
  e-----I
  B--5--I
  G--5--I
  D--5--I
  A--4--I
  E-----I

the scratches before the solo and throughout the last verse and
onward is played on the top three strings (high e,b,g: barre the
12th fret)

 e--15--I--15--I--14--I--12--I--14--I--12--I--14---|I
 B--13--I--13--I--13--I--13--I--13--I--13--I--13---|I
 G--12--I--12--I--12--I--12--I--12--I--12--I--12---|I
 e--15--I--15--I--14--I--12--I--14--I--12----------|I

 Hell, I know you know the rhythm!

Not very much I know but I am hoping someone will post the solo
and other nuances.
Comments/corrections to


Added guitar solo from Mat (mat2k@gmx.net)

                      |       wah-wah part     |
E---------------------------------------------------------------------------------|
B--10~~ -10-----------------------------------------------------------------------|
G------------9-x-x-----12-12-12-10-------10--------------10-10^12--12b13r12p10h12-|
D----------------------------------12-12----12/ ---10^12--------------------------|
A---------------------------------------------------------------------------------|
E---------------------------------------------------------------------------------|

E---------------------------------------------------------------------------------|
B---------------------------------------------------------------------------------|
G--12b13r12p10---12-12^10---------------------------------------------------------|
D--------------------------12-----------------------------------------------------|
A---------------------------------------------------------------------------------|
E---------------------------------------------------------------------------------|
comments
print report bad tab
I want to post or [tab]
guest
You may want to rate the tab now too:
select rating
Please do not post tabs as comments. Select "correction" instead!