Oops, an error
Loading. Please wait.

Kiss tab

version 2
version 2

Whole song

Interactive

by Prince
6,101 views 54 this week
no commentswrite comment
1 2 3 4 5
x 7
add to favorites
×
Save as Personal and add changes to this tab that will be seen only by you. Learn more ›
×
You can save this tab as Personal to edit and correct it or add notes. All changes will be seen only by you. Learn more »
launch autoscroll
font size
0
reset
how to read this tab
guitar tuner
edit
Autoscroll
slow
fast
+/-
esc
set tempo
stop
Author
Difficulty
intermediate
KISS

As recorded by Prince
(From the 1986 Album PARADE)

Words and Music by Prince

Transcribed by Slowhand


Gtr I (E A D G B E) - 'Prince - Electric Guitar'
Gtr II (E A D G B E) - 'Prince - Electric Guitar '
Gtr III (E A D G B E) - 'Tony Christian - Synthesizer'


[Intro]
  Q=112
  E13sus4                           A
 4/4
  Gtr I (Clean El. Gtr.)            Gtr III (Synth. arr. for Gtr.)
   S  S  S  S  S  S  S  S  e E Q    S S e e e e e e e   S S e e e e e e e
e|-12-12-12-12-12-12-12-12-12------|-5-5-5-5-5-5-5-5---|-5-5-5-5-5-5-5-5----|
B|-12-12-12-12-12-12-12-12-12------|-2-2-2-2-2-2-2-2---|-2-2-2-2-2-2-2-2----|
G|-11-11-11-11-11-11-11-11-11------|-2-2-2-2-2-2-2-2---|-2-2-2-2-2-2-2-2----|
D|-12-12-12-12-12-12-12-12-12------|-2-2-2-2-2-2-2-2---|-2-2-2-2-2-2-2-2----|
A|---------------------------------|-----------------0-|-----------------0--|
E|---------------------------------|-------------------|--------------------|
|
 | Gtr II (Clean El. Gtr.)
 |  S  S  S  S  S  S  S  S  e E Q    W                   W
e|--9--9--9--9--9--9--9--9--9------|-------------------|--------------------|
B|--7--7--7--7--7--7--7--7--7------|-------------------|--------------------|
G|--7--7--7--7--7--7--7--7--7------|-------------------|--------------------|
D|--7--7--7--7--7--7--7--7--7------|-------------------|--------------------|
A|---------------------------------|-------------------|--------------------|
E|---------------------------------|-------------------|--------------------|

                                    [1st & 2nd Verses]
                                       A
   e e e e e e e E   S S E Q  H        S S e e e e e e E
e|-5-5-5-5-5-5-5---|-5-5-----------||--5-5-5-5-5-5-5-5---|
B|-2-2-2-2-2-2-2---|-2-2-----------||o-2-2-2-2-2-2-2-2---|
G|-2-2-2-2-2-2-2---|-2-2-----------||--2-2-2-2-2-2-2-2---|
D|-2-2-2-2-2-2-2---|-2-2-----------||--2-2-2-2-2-2-2-2---|
A|-----------------|---------------||o-------------------|
E|-----------------|---------------||--------------------|

   S S S S e e e e e E   E S S e e e e e E   S S S S e S S e e e E
e|-5-5-5-5-5-5-5-5-5---|-5-5-5-5-5-5-5-5---|-5-5-5-5-5-5-5-5-5-5---|
B|-2-2-2-2-2-2-2-2-2---|-2-2-2-2-2-2-2-2---|-2-2-2-2-2-2-2-2-2-2---|
G|-2-2-2-2-2-2-2-2-2---|-2-2-2-2-2-2-2-2---|-2-2-2-2-2-2-2-2-2-2---|
D|-2-2-2-2-2-2-2-2-2---|-2-2-2-2-2-2-2-2---|-2-2-2-2-2-2-2-2-2-2---|
A|---------------------|-------------------|-----------------------|
E|---------------------|-------------------|-----------------------|

   S S e e e e e e E   S S S S e e e e e E   S S e e e e e e E
e|-5-5-5-5-5-5-5-5---|-5-5-5-5-5-5-5-5-5---|-5-5-5-5-5-5-5-5----|
B|-2-2-2-2-2-2-2-2---|-2-2-2-2-2-2-2-2-2---|-2-2-2-2-2-2-2-2----|
G|-2-2-2-2-2-2-2-2---|-2-2-2-2-2-2-2-2-2---|-2-2-2-2-2-2-2-2----|
D|-2-2-2-2-2-2-2-2---|-2-2-2-2-2-2-2-2-2---|-2-2-2-2-2-2-2-2----|
A|-------------------|---------------------|--------------------|
E|-------------------|---------------------|--------------------|

                         D
   S S S S e e e e e E   S S e e e e e e E   S S S S S S S S e e e E
e|-5-5-5-5-5-5-5-5-5---|-5-5-5-5-5-5-5-5---|-5-5-5-5-5-5-5-5-5-5-5----|
B|-2-2-2-2-2-2-2-2-2---|-7-7-7-7-7-7-7-7---|-7-7-7-7-7-7-7-7-7-7-7----|
G|-2-2-2-2-2-2-2-2-2---|-7-7-7-7-7-7-7-7---|-7-7-7-7-7-7-7-7-7-7-7----|
D|-2-2-2-2-2-2-2-2-2---|-7-7-7-7-7-7-7-7---|-7-7-7-7-7-7-7-7-7-7-7----|
A|---------------------|-------------------|--------------------------|
E|---------------------|-------------------|--------------------------|

                                                   A
   S S e e e e e E S S   S S S S S S S S e e e E   E S S e e e e e E
e|-5-5-5-5-5-5-5---5-5-|-5-5-5-5-5-5-5-5-5-5-5---|-5-5-5-5-5-5-5-5----|
B|-7-7-7-7-7-7-7---7-7-|-7-7-7-7-7-7-7-7-7-7-7---|-2-2-2-2-2-2-2-2----|
G|-7-7-7-7-7-7-7---7-7-|-7-7-7-7-7-7-7-7-7-7-7---|-2-2-2-2-2-2-2-2----|
D|-7-7-7-7-7-7-7---7-7-|-7-7-7-7-7-7-7-7-7-7-7---|-2-2-2-2-2-2-2-2----|
A|---------------------|-------------------------|--------------------|
E|---------------------|-------------------------|--------------------|

   S S S S e S S e e e E   S S e e e e e e E   S S S S e e S S e e E
e|-5-5-5-5-5-5-5-5-5-5---|-5-5-5-5-5-5-5-5---|-5-5-5-5-5-5-5-5-5-5----||
B|-2-2-2-2-2-2-2-2-2-2---|-2-2-2-2-2-2-2-2---|-2-2-2-2-2-2-2-2-2-2----||
G|-2-2-2-2-2-2-2-2-2-2---|-2-2-2-2-2-2-2-2---|-2-2-2-2-2-2-2-2-2-2----||
D|-2-2-2-2-2-2-2-2-2-2---|-2-2-2-2-2-2-2-2---|-2-2-2-2-2-2-2-2-2-2----||
A|-----------------------|-------------------|------------------------||
E|-----------------------|-------------------|------------------------||

[Chorus]
   E                                           D
   S S e e e e e e E   S S S S e S S e e e E   S S e e e e e e E
e|-7-7-7-7-7-7-7-7---|-7-7-7-7-7-7-7-7-7-7---|-5-5-5-5-5-5-5-5---|
B|-9-9-9-9-9-9-9-9---|-9-9-9-9-9-9-9-9-9-9---|-7-7-7-7-7-7-7-7---|
G|-9-9-9-9-9-9-9-9---|-9-9-9-9-9-9-9-9-9-9---|-7-7-7-7-7-7-7-7---|
D|-9-9-9-9-9-9-9-9---|-9-9-9-9-9-9-9-9-9-9---|-7-7-7-7-7-7-7-7---|
A|-------------------|-----------------------|-------------------|
E|-------------------|-----------------------|-------------------|

                          E
   S S S S e S S e e Q    e e e e e e e E   S S S S e S S e e e E
e|-5-5-5-5-5-5-5-5-5----|-7-7---7-7-7-7---|-7-7-7-7-7-7-7-7-7-7---|
B|-7-7-7-7-7-7-7-7-7----|-9-9---9-9-9-9---|-9-9-9-9-9-9-9-9-9-9---|
G|-7-7-7-7-7-7-7-7-7----|-9-9---9-9-9-9---|-9-9-9-9-9-9-9-9-9-9---|
D|-7-7-7-7-7-7-7-7-7----|-9-9---9-9-9-9---|-9-9-9-9-9-9-9-9-9-9---|
A|----------------------|-----------------|-----------------------|
E|----------------------|-----------------|-----------------------|

   D                      E13sus4
                          Gtr I
   S S S S e S S e e Q     S  S  S  S  S  S  S  S  e E Q
e|-5-5-5-5-5-5-5-5-5----|-12-12-12-12-12-12-12-12-12------||
B|-7-7-7-7-7-7-7-7-7----|-12-12-12-12-12-12-12-12-12------||
G|-7-7-7-7-7-7-7-7-7----|-11-11-11-11-11-11-11-11-11------||
D|-7-7-7-7-7-7-7-7-7----|-12-12-12-12-12-12-12-12-12------||
A|----------------------|---------------------------------||
E|----------------------|---------------------------------||

[Interlude]
   A
   Gtr III
   S S e e e e e e e   S S e e e e e e e   e e e e e e e E   S S E Q  H
e|-5-5-5-5-5-5-5-5---|-5-5-5-5-5-5-5-5---|-5-5-5-5-5-5-5---|-5-5------------||
B|-2-2-2-2-2-2-2-2---|-2-2-2-2-2-2-2-2---|-2-2-2-2-2-2-2---|-2-2-----------o||
G|-2-2-2-2-2-2-2-2---|-2-2-2-2-2-2-2-2---|-2-2-2-2-2-2-2---|-2-2------------||
D|-2-2-2-2-2-2-2-2---|-2-2-2-2-2-2-2-2---|-2-2-2-2-2-2-2---|-2-2------------||
A|-----------------0-|-----------------0-|-----------------|---------------o||
E|-------------------|-------------------|-----------------|----------------||

[Guitar Solo]
   A
   Gtr I
    S  S  S  S  +S   S  S  S  S  E    S  e  e
e|-15-15-15-15-(15)-15-15-15-15-15---15-15-14-|
B|-13-13-13-13-(13)-13-13-13-13-13---13-13-13-|
G|-12-12-12-12-(12)-12-12-12-12-12---12-12-12-|
D|-12-12-12-12-(12)-12-12-12-12-12---12-12-12-|
A|--------------------------------------------|
E|--------------------------------------------|
|
 | Gtr III
 |  S  S  e      e      e     e    e     e  E
e|--5--5--5------5------5-----5----5-----5----|
B|--2--2--2------2------2-----2----2-----2----|
G|--2--2--2------2------2-----2----2-----2----|
D|--2--2--2------2------2-----2----2-----2----|
A|--------------------------------------------|
E|--------------------------------------------|

    S  S S  S S S S S S S S S S S  e
e|-12-14---14---x-x-x---x-x-x---x-15--|
B|-13-13---13---x-x-x---x-x-x---x-13--|
G|-12-12---12---x-x-x---x-x-x---x-12--|
D|-12-12---12---x-x-x---x-x-x---x-12--|
A|------------------------------------|
E|------------------------------------|
|
 |  S  S S  S e   e   e   e   e    E
e|--5--5-5--5-5---5---5---5---5-------|
B|--2--2-2--2-2---2---2---2---2-------|
G|--2--2-2--2-2---2---2---2---2-------|
D|--2--2-2--2-2---2---2---2---2-------|
A|------------------------------------|
E|------------------------------------|

    S  S S  S S E   S S E   S S S  e    S  S S  S S E   S S E   S S S S S
e|-12-14---14---x---x---x---x---x-15-|-12-14---14---x---x---x---x-x-x-x-x-|
B|-13-13---13---x---x---x---x---x-13-|-13-13---13---x---x---x---x-x-x-x-x-|
G|-12-12---12---x---x---x---x---x-12-|-12-12---12---x---x---x---x-x-x-x-x-|
D|-12-12---12---x---x---x---x---x-12-|-12-12---12---x---x---x---x-x-x-x-x-|
A|-----------------------------------|------------------------------------|
E|-----------------------------------|------------------------------------|
|
 |  E    S  S e   e   e   e   e    E    S  S S  S e   S S e   e   e   E
e|--5----5--5-5---5---5---5---5------|--5--5-5--5-5---5-5-5---5---5-------|
B|--2----2--2-2---2---2---2---2------|--2--2-2--2-2---2-2-2---2---2-------|
G|--2----2--2-2---2---2---2---2------|--2--2-2--2-2---2-2-2---2---2-------|
D|--2----2--2-2---2---2---2---2------|--2--2-2--2-2---2-2-2---2---2-------|
A|-----------------------------------|------------------------------------|
E|-----------------------------------|------------------------------------|

    S  S  S  S  +S   S  S  S  +S   S  S  S  s  s  e
e|-15-15-15-15-(15)-15-15-15-(15)-15-15-15-15-15-14-|
B|-13-13-13-13-(13)-13-13-13-(13)-13-13-13-13-13-13-|
G|-12-12-12-12-(12)-12-12-12-(12)-12-12-12-12-12-12-|
D|-12-12-12-12-(12)-12-12-12-(12)-12-12-12-12-12-12-|
A|--------------------------------------------------|
E|--------------------------------------------------|
|
 |  S  S  e      e      e      e      e     e     E
e|--5--5--5------5------5------5------5-----5-------|
B|--2--2--2------2------2------2------2-----2-------|
G|--2--2--2------2------2------2------2-----2-------|
D|--2--2--2------2------2------2------2-----2-------|
A|--------------------------------------------------|
E|--------------------------------------------------|

    S  S S  S S S S S S S S S S S  e
e|-12-14---14---x-x-x---x-x-x---x-15-|
B|-13-13---13---x-x-x---x-x-x---x-13-|
G|-12-12---12---x-x-x---x-x-x---x-12-|
D|-12-12---12---x-x-x---x-x-x---x-12-|
A|-----------------------------------|
E|-----------------------------------|
|
 |  S  S S  S e   e   e   e   e    E
e|--5--5-5--5-5---5---5---5---5------|
B|--2--2-2--2-2---2---2---2---2------|
G|--2--2-2--2-2---2---2---2---2------|
D|--2--2-2--2-2---2---2---2---2------|
A|-----------------------------------|
E|-----------------------------------|

    S  S S  S S E   S S E   S S S  S S    S  S S  S S E   S S E   S E E
e|-12-14---14---x---x---x---x---x-15-x-|-12-14---14---x---x---x---x-x-x-|
B|-13-13---13---x---x---x---x---x-13-x-|-13-13---13---x---x---x---x-x-x-|
G|-12-12---12---x---x---x---x---x-12-x-|-12-12---12---x---x---x---x-x-x-|
D|-12-12---12---x---x---x---x---x-12-x-|-12-12---12---x---x---x---x-x-x-|
A|-------------------------------------|--------------------------------|
E|-------------------------------------|--------------------------------|
|
 |  S  S e    e   e   e   e   e    E      S  S S  S e   e   e   e   e E
e|--5--5-5----5---5---5---5---5--------|--5--5-5--5-5---5---5---5---5---|
B|--2--2-2----2---2---2---2---2--------|--2--2-2--2-2---2---2---2---2---|
G|--2--2-2----2---2---2---2---2--------|--2--2-2--2-2---2---2---2---2---|
D|--2--2-2----2---2---2---2---2--------|--2--2-2--2-2---2---2---2---2---|
A|-------------------------------------|--------------------------------|
E|-------------------------------------|--------------------------------|

   D
         ~~~~~                                                        ~~
   E   E E.      +S  +S  S S S S S E   Q       S S S S    +S  S S S S E.
e|-x---------------------5---x---x-x-|-------------------------------------|
B|-x-----8b10====(8)r(8)-6---x---x-x-|---------1-3-3-3pb4r(3)-1-3---1------|
G|-x---------------------------------|----------------------------0---2----|
D|-x---------------------------------|-------------------------------------|
A|-----------------------------------|-------------------------------------|
E|-----------------------------------|-------------------------------------|
|
 | S S e e     e      e    e   e   E   S S S S S S S S     e    e   e    E
e|-5-5-5-5-----5------5----5---5-----|-5-5-5-5-5-5-5-5-----5----5---5------|
B|-7-7-7-7-----7------7----7---7-----|-7-7-7-7-7-7-7-7-----7----7---7------|
G|-7-7-7-7-----7------7----7---7-----|-7-7-7-7-7-7-7-7-----7----7---7------|
D|-7-7-7-7-----7------7----7---7-----|-7-7-7-7-7-7-7-7-----7----7---7------|
A|-----------------------------------|-------------------------------------|
E|-----------------------------------|-------------------------------------|

    ~~~~
   +T  T E.   E.   S e e S S S   S   +S  S e   S   +S  S S e S S   S E.
e|---------------------------------|--------------------------------------|
B|------------x--------1-3p1-3b4-3-|-(3)-1-3---3b4r(3)p1---3-3-1b2--------|
G|-(2)p0------x----0-2-------------|-------------------------------0-2----|
D|------------x--------------------|--------------------------------------|
A|---------------------------------|--------------------------------------|
E|---------------------------------|--------------------------------------|
|
 |  S    S  e e  e   e e E   S   S    S  S S S S    S  S S e e     e    E
e|--5----5--5-5--5---5-5-----5---5-|--5--5-5-5-5----5--5-5-5-5-----5------|
B|--7----7--7-7--7---7-7-----7---7-|--7--7-7-7-7----7--7-7-7-7-----7------|
G|--7----7--7-7--7---7-7-----7---7-|--7--7-7-7-7----7--7-7-7-7-----7------|
D|--7----7--7-7--7---7-7-----7---7-|--7--7-7-7-7----7--7-7-7-7-----7------|
A|---------------------------------|--------------------------------------|
E|---------------------------------|--------------------------------------|

   A
   ~~
   T T E.     S S S S S S S S S S E   S S E   S S S S S S S S S S S S
e|------------x-x-x-5-x-5-x-5-x-x-x-|-x-x-x---x-x-x-5-x-5-x-5-x-x-x-x--|
B|------------x-x-x-5-x-5-x-5-x-x-x-|-x-x-x---x-x-x-5-x-5-x-5-x-x-x-x--|
G|-2p0--------x-x-x-5-x-5-x-5-x-x-x-|-x-x-x---x-x-x-5-x-5-x-5-x-x-x-x--|
D|----------------------------------|----------------------------------|
A|----------------------------------|----------------------------------|
E|----------------------------------|----------------------------------|
|
 | E      S S e   e   e   e   e   E   S S S S e   S S e   e   e   E
e|-5------5-5-5---5---5---5---5-----|-5-5-5-5-5---5-5-5---5---5--------|
B|-2------2-2-2---2---2---2---2-----|-2-2-2-2-2---2-2-2---2---2--------|
G|-2------2-2-2---2---2---2---2-----|-2-2-2-2-2---2-2-2---2---2--------|
D|-2------2-2-2---2---2---2---2-----|-2-2-2-2-2---2-2-2---2---2--------|
A|----------------------------------|----------------------------------|
E|----------------------------------|----------------------------------|

   S S E S S S S S S S S S S S S    S     +S  E Q  H
e|-x-x-x-x-x-x-5-x-5-x-5-x-x-x-x-|-14-------------------||
B|-x-x-x-x-x-x-5-x-5-x-5-x-x-x-x-|-13b14-(13)-----------||
G|-x-x-x-x-x-x-5-x-5-x-5-x-x-x-x-|----------------------||
D|-------------------------------|----------------------||
A|-------------------------------|----------------------||
E|-------------------------------|----------------------||
|
 | S S e e   e   e   e   e   E      S      S  E Q  H
e|-5-5-5-5---5---5---5---5-------|--5------5------------||
B|-2-2-2-2---2---2---2---2-------|--2------2------------||
G|-2-2-2-2---2---2---2---2-------|--2------2------------||
D|-2-2-2-2---2---2---2---2-------|--2------2------------||
A|-------------------------------|----------------------||
E|-------------------------------|----------------------||

[3rd Verse]
   A
    S  S S  S S S  e E E S S E    S  S S  S S S  e  e E S S E
e|-15-15---14-x-x-14-x-x-x-x-x-|-15-15---14-x-x-14-12-x-x-x-x-|
B|-13-13---13-x-x-13-x-x-x-x-x-|-13-13---13-x-x-13-13-x-x-x-x-|
G|-12-12---12-x-x-12-x-x-x-x-x-|-12-12---12-x-x-12-12-x-x-x-x-|
D|-12-12---12-x-x-12-x-x-x-x-x-|-12-12---12-x-x-12-12-x-x-x-x-|
A|-----------------------------|------------------------------|
E|-----------------------------|------------------------------|
|
 |  S  S e    e    e e e e   E    S  S S  S e    e  e e e   E
e|--5--5-5----5----5-5-5-5-----|--5--5-5--5-5----5--5-5-5-----|
B|--2--2-2----2----2-2-2-2-----|--2--2-2--2-2----2--2-2-2-----|
G|--2--2-2----2----2-2-2-2-----|--2--2-2--2-2----2--2-2-2-----|
D|--2--2-2----2----2-2-2-2-----|--2--2-2--2-2----2--2-2-2-----|
A|-----------------------------|------------------------------|
E|-----------------------------|------------------------------|


    S  S S  S S S  e  e  E S S E    S  S S  S S S  e    e E S S E
e|-15-15---14-x-x-14-12-14-x-x-x-|-15-15---14-x-x-14---12-x-x-x-x-|
B|-13-13---13-x-x-13-13-13-x-x-x-|-13-13---13-x-x-13---13-x-x-x-x-|
G|-12-12---12-x-x-12-12-12-x-x-x-|-12-12---12-x-x-12---12-x-x-x-x-|
D|-12-12---12-x-x-12-12-12-x-x-x-|-12-12---12-x-x-12---12-x-x-x-x-|
A|-------------------------------|--------------------------------|
E|-------------------------------|--------------------------------|
|
 |  E    S  S e    e  e  e e   E    S  S S  S e    S S  e e e   E
e|--5----5--5-5----5--5--5-5-----|--5--5-5--5-5----5-5--5-5-5-----|
B|--2----2--2-2----2--2--2-2-----|--2--2-2--2-2----2-2--2-2-2-----|
G|--2----2--2-2----2--2--2-2-----|--2--2-2--2-2----2-2--2-2-2-----|
D|--2----2--2-2----2--2--2-2-----|--2--2-2--2-2----2-2--2-2-2-----|
A|-------------------------------|--------------------------------|
E|-------------------------------|--------------------------------|

    S  S S  S S S  e  e  E E E    S  S S  S S S  e  E E S S S S
e|-15-15---14-x-x-14-12-14-x-x-|-15-15---14-x-x-14-12-x-x-x-x-x-|
B|-13-13---13-x-x-13-13-13-x-x-|-13-13---13-x-x-13-13-x-x-x-x-x-|
G|-12-12---12-x-x-12-12-12-x-x-|-12-12---12-x-x-12-12-x-x-x-x-x-|
D|-12-12---12-x-x-12-12-12-x-x-|-12-12---12-x-x-12-12-x-x-x-x-x-|
A|-----------------------------|--------------------------------|
E|-----------------------------|--------------------------------|
|
 |  S  S e    e    e  e  e e E    S  S S  S e    e  e e e   E
e|--5--5-5----5----5--5--5-5---|--5--5-5--5-5----5--5-5-5-------|
B|--2--2-2----2----2--2--2-2---|--2--2-2--2-2----2--2-2-2-------|
G|--2--2-2----2----2--2--2-2---|--2--2-2--2-2----2--2-2-2-------|
D|--2--2-2----2----2--2--2-2---|--2--2-2--2-2----2--2-2-2-------|
A|-----------------------------|--------------------------------|
E|-----------------------------|--------------------------------|

    S  S S  S S S  e  e  E S S E    S  S S  S S S  e  E E S S S S
e|-15-15---14-x-x-14-12-14-x-x-x-|-15-15---14-x-x-14-12-x-x-x-x-x-|
B|-13-13---13-x-x-13-13-13-x-x-x-|-13-13---13-x-x-13-13-x-x-x-x-x-|
G|-12-12---12-x-x-12-12-12-x-x-x-|-12-12---12-x-x-12-12-x-x-x-x-x-|
D|-12-12---12-x-x-12-12-12-x-x-x-|-12-12---12-x-x-12-12-x-x-x-x-x-|
A|-------------------------------|--------------------------------|
E|-------------------------------|--------------------------------|
|
 |  S  S e    e    e  e  e e   E    S  S S  S e    e  e e e   E
e|--5--5-5----5----5--5--5-5-----|--5--5-5--5-5----5--5-5-5-------|
B|--2--2-2----2----2--2--2-2-----|--2--2-2--2-2----2--2-2-2-------|
G|--2--2-2----2----2--2--2-2-----|--2--2-2--2-2----2--2-2-2-------|
D|--2--2-2----2----2--2--2-2-----|--2--2-2--2-2----2--2-2-2-------|
A|-------------------------------|--------------------------------|
E|-------------------------------|--------------------------------|

   D
    S S S  S S S  e  e  E S S E    S S S  S S S  e    e E S S S S
e|-12-x-x-14-x-x-14-12-14-x-x-x-|-12-x-x-14-x-x-14---14-x-x-x-x-x-|
B|-13-x-x-13-x-x-13-13-13-x-x-x-|-13-x-x-13-x-x-13---13-x-x-x-x-x-|
G|-12-x-x-12-x-x-12-12-12-x-x-x-|-12-x-x-12-x-x-12---12-x-x-x-x-x-|
D|-12-x-x-12-x-x-12-12-12-x-x-x-|-12-x-x-12-x-x-12---12-x-x-x-x-x-|
A|------------------------------|---------------------------------|
E|------------------------------|---------------------------------|
|
 |  S S e    e    e  e  e e   E    S S S  S S S  S S  e e e   E
e|--5-5-5----5----5--5--5-5-----|--5-5-5--5-5-5--5-5--5-5-5-------|
B|--7-7-7----7----7--7--7-7-----|--7-7-7--7-7-7--7-7--7-7-7-------|
G|--7-7-7----7----7--7--7-7-----|--7-7-7--7-7-7--7-7--7-7-7-------|
D|--7-7-7----7----7--7--7-7-----|--7-7-7--7-7-7--7-7--7-7-7-------|
A|------------------------------|---------------------------------|
E|------------------------------|---------------------------------|

    S  S S  S S S  e  e  E S S E      S S S  S S S  e    E S S E S S
e|-12-12-x-14-x-x-14-12-14-x-x-x---|-12-x-x-14-x-x-14---14-x-x-x-x-x-|
B|-13-13-x-13-x-x-13-13-13-x-x-x---|-13-x-x-13-x-x-13---13-x-x-x-x-x-|
G|-12-12-x-12-x-x-12-12-12-x-x-x---|-12-x-x-12-x-x-12---12-x-x-x-x-x-|
D|-12-12-x-12-x-x-12-12-12-x-x-x---|-12-x-x-12-x-x-12---12-x-x-x-x-x-|
A|---------------------------------|---------------------------------|
E|---------------------------------|---------------------------------|
|
 |  S  S e    e    e  e  e E   S S    S S S  S S S  S S  e e   e E
e|--5--5-5----5----5--5--5-----5-5-|--5-5-5--5-5-5--5-5--5-5---5-----|
B|--7--7-7----7----7--7--7-----7-7-|--7-7-7--7-7-7--7-7--7-7---7-----|
G|--7--7-7----7----7--7--7-----7-7-|--7-7-7--7-7-7--7-7--7-7---7-----|
D|--7--7-7----7----7--7--7-----7-7-|--7-7-7--7-7-7--7-7--7-7---7-----|
A|---------------------------------|---------------------------------|
E|---------------------------------|---------------------------------|

   A
    S  S S  S S S  e  e  E S S E    S S S  S S S  e    S S E E S S
e|-15-15---14-x-x-14-12-14-x-x-x-|-12-x-x-14-x-x-14---12-x-x-x-x-x-||
B|-13-13---13-x-x-13-13-13-x-x-x-|-13-x-x-13-x-x-13---13-x-x-x-x-x-||
G|-12-12---12-x-x-12-12-12-x-x-x-|-12-x-x-12-x-x-12---12-x-x-x-x-x-||
D|-12-12---12-x-x-12-12-12-x-x-x-|-12-x-x-12-x-x-12---12-x-x-x-x-x-||
A|-------------------------------|---------------------------------||
E|-------------------------------|---------------------------------||
|
 |  E    S  S e    e  e  e e   E    S S S  S e    S S  e   e e E
e|--5----5--5-5----5--5--5-5-----|--5-5-5--5-5----5-5--5---5-5-----||
B|--2----2--2-2----2--2--2-2-----|--2-2-2--2-2----2-2--2---2-2-----||
G|--2----2--2-2----2--2--2-2-----|--2-2-2--2-2----2-2--2---2-2-----||
D|--2----2--2-2----2--2--2-2-----|--2-2-2--2-2----2-2--2---2-2-----||
A|-------------------------------|---------------------------------||
E|-------------------------------|---------------------------------||

    S  S S  S S S  e  e  E S S E    S  S S  S S S  e  S  S E S S S S
e|-15-15---14-x-x-14-12-14-x-x-x-|-12-12---14-x-x-14-12-12-x-x-x-x-x-||
B|-13-13---13-x-x-13-13-13-x-x-x-|-13-13---13-x-x-13-13-13-x-x-x-x-x-||
G|-12-12---12-x-x-12-12-12-x-x-x-|-12-12---12-x-x-12-12-12-x-x-x-x-x-||
D|-12-12---12-x-x-12-12-12-x-x-x-|-12-12---12-x-x-12-12-12-x-x-x-x-x-||
A|-------------------------------|-----------------------------------||
E|-------------------------------|-----------------------------------||
|
 |  S  S e    e    e  e  e e   E    S  S S  S e    e  S  S e e   E
e|--5--5-5----5----5--5--5-5-----|--5--5-5--5-5----5--5--5-5-5-------||
B|--2--2-2----2----2--2--2-2-----|--2--2-2--2-2----2--2--2-2-2-------||
G|--2--2-2----2----2--2--2-2-----|--2--2-2--2-2----2--2--2-2-2-------||
D|--2--2-2----2----2--2--2-2-----|--2--2-2--2-2----2--2--2-2-2-------||
A|-------------------------------|-----------------------------------||
E|-------------------------------|-----------------------------------||

[Chorus]
   E
    S  S  S  S  S  S  S  S  S  S  S  S  S  S  S  S
e|-12-12-12-12-12-12-12-12-12-12-12-12-12-12-12-12-|
B|-12-12-12-12-12-12-12-12-12-12-12-12-12-12-12-12-|
G|-11-11-11-11-11-11-11-11-11-11-11-11-11-11-11-11-|
D|-12-12-12-12-12-12-12-12-12-12-12-12-12-12-12-12-|
A|-------------------------------------------------|
E|-------------------------------------------------|
|
 |  S  S  e     e     e     e     e     e     E
e|--7--7--7-----7-----7-----7-----7-----7----------|
B|--9--9--9-----9-----9-----9-----9-----9----------|
G|--9--9--9-----9-----9-----9-----9-----9----------|
D|--9--9--9-----9-----9-----9-----9-----9----------|
A|-------------------------------------------------|
E|-------------------------------------------------|

    S  S  S  S  S  S  S  S  S  S  S  S  S  S  S  S
e|-12-12-12-12-12-12-12-12-12-12-12-12-12-12-12-12--|
B|-12-12-12-12-12-12-12-12-12-12-12-12-12-12-12-12--|
G|-11-11-11-11-11-11-11-11-11-11-11-11-11-11-11-11--|
D|-12-12-12-12-12-12-12-12-12-12-12-12-12-12-12-12--|
A|--------------------------------------------------|
E|--------------------------------------------------|
|
 |  S  S  S  S  e     S  S  e     e     e     E
e|--7--7--7--7--7-----7--7--7-----7-----7-----------|
B|--9--9--9--9--9-----9--9--9-----9-----9-----------|
G|--9--9--9--9--9-----9--9--9-----9-----9-----------|
D|--9--9--9--9--9-----9--9--9-----9-----9-----------|
A|--------------------------------------------------|
E|--------------------------------------------------|

   D
    S  S  S  S  E  E  E  E  S  S  S  S
e|-10-10-10-10-10-10-10-10-10-10-10-10-|
B|-10-10-10-10-10-10-10-10-10-10-10-10-|
G|--9--9--9--9--9--9--9--9--9--9--9--9-|
D|-10-10-10-10-10-10-10-10-10-10-10-10-|
A|-------------------------------------|
E|-------------------------------------|
|
 |  S  S  e     e  e  e  e  e     E
e|--5--5--5-----5--5--5--5--5----------|
B|--7--7--7-----7--7--7--7--7----------|
G|--7--7--7-----7--7--7--7--7----------|
D|--7--7--7-----7--7--7--7--7----------|
A|-------------------------------------|
E|-------------------------------------|

    S  S  S  S  S  S  S  S  S  S  S  S  S  S  S  S
e|-10-10-10-10-10-10-10-10-10-10-10-10-10-10-10-10-|
B|-10-10-10-10-10-10-10-10-10-10-10-10-10-10-10-10-|
G|--9--9--9--9--9--9--9--9--9--9--9--9--9--9--9--9-|
D|-10-10-10-10-10-10-10-10-10-10-10-10-10-10-10-10-|
A|-------------------------------------------------|
E|-------------------------------------------------|
|
 |  S  S  S  S  e     S  S  e     e     Q
e|--5--5--5--5--5-----5--5--5-----5----------------|
B|--7--7--7--7--7-----7--7--7-----7----------------|
G|--7--7--7--7--7-----7--7--7-----7----------------|
D|--7--7--7--7--7-----7--7--7-----7----------------|
A|-------------------------------------------------|
E|-------------------------------------------------|

   E
    S  S  S  S  S  S  S  S  S  S  S  S  S  S  S  S
e|-12-12-12-12-12-12-12-12-12-12-12-12-12-12-12-12-|
B|-12-12-12-12-12-12-12-12-12-12-12-12-12-12-12-12-|
G|-11-11-11-11-11-11-11-11-11-11-11-11-11-11-11-11-|
D|-12-12-12-12-12-12-12-12-12-12-12-12-12-12-12-12-|
A|-------------------------------------------------|
E|-------------------------------------------------|
|
 |  e     e     e     e     e     e     e     E
e|--7-----7-----------7-----7-----7-----7----------|
B|--9-----9-----------9-----9-----9-----9----------|
G|--9-----9-----------9-----9-----9-----9----------|
D|--9-----9-----------9-----9-----9-----9----------|
A|-------------------------------------------------|
E|-------------------------------------------------|

    S  S  S  S  E  S  S  S  S  E  E  S  S
e|-12-12-12-12-12-12-12-12-12-12-12-12-12--|
B|-12-12-12-12-12-12-12-12-12-12-12-12-12--|
G|-11-11-11-11-11-11-11-11-11-11-11-11-11--|
D|-12-12-12-12-12-12-12-12-12-12-12-12-12--|
A|-----------------------------------------|
E|-----------------------------------------|
|
 |  S  S  S  S  e  S  S  e     e  e  E
e|--7--7--7--7--7--7--7--7-----7--7--------|
B|--9--9--9--9--9--9--9--9-----9--9--------|
G|--9--9--9--9--9--9--9--9-----9--9--------|
D|--9--9--9--9--9--9--9--9-----9--9--------|
A|-----------------------------------------|
E|-----------------------------------------|

   D
    S  S  S  S  E  S  S  S  S  S  S  S  S S S
e|-10-10-10-10-10-10-10-10-10-10-10-10-10-x-x-|
B|-10-10-10-10-10-10-10-10-10-10-10-10-10-x-x-|
G|--9--9--9--9--9--9--9--9--9--9--9--9--9-x-x-|
D|-10-10-10-10-10-10-10-10-10-10-10-10-10-x-x-|
A|--------------------------------------------|
E|--------------------------------------------|
|
 |  S  S  S  S  e  S  S  e     e     Q
e|--5--5--5--5--5--5--5--5-----5--------------|
B|--7--7--7--7--7--7--7--7-----7--------------|
G|--7--7--7--7--7--7--7--7-----7--------------|
D|--7--7--7--7--7--7--7--7-----7--------------|
A|--------------------------------------------|
E|--------------------------------------------|

   E
    S  S  S  S  S  S  S  S  e E Q
e|-12-12-12-12-12-12-12-12-12------||
B|-12-12-12-12-12-12-12-12-12------||
G|-11-11-11-11-11-11-11-11-11------||
D|-12-12-12-12-12-12-12-12-12------||
A|---------------------------------||
E|---------------------------------||
|
 |  W
e|---------------------------------||
B|---------------------------------||
G|---------------------------------||
D|---------------------------------||
A|---------------------------------||
E|---------------------------------||

[Outro]
   Em7
   Gtr II
    ~~~~~
    Q         E    E  E  S  S  S  S  S  S
e|------------x---------17----------------|
B|-15b17------x---------------------------|
G|----------------------------14-------11-|
D|----------------------------------14----|
A|-------------------------12----12-------|
E|----------------------------------------|
|
 | Gtr I
 |  E    S  S S S  e  e  E     S  S  E
e|-15----x-14-x-x-14-12-14-----x--x--x----|
B|-13----x-13-x-x-13-13-13-----x--x--x----|
G|-12----x-12-x-x-12-12-12-----x--x--x----|
D|-12----x-12-x-x-12-12-12-----x--x--x----|
A|----------------------------------------|
E|----------------------------------------|

                                        ~~~~~~~~~~~
    E.       S E    e     S     +S   S  S     +E.    S    S  E.       e    e  H
e|-12-------12-x---------------------------------------|-------------------------------*|
B|-10-------10-x---12b13-12b13r(12)p10-12b13r(12)p==10-|----10-------12----------------*|
G|-----------------------------------------------------|-12---------------11-----------*|
D|-----------------------------------------------------|-------------------------------*|
A|-----------------------------------------------------|-------------------------------*|
E|-----------------------------------------------------|-------------------------------*|
|
 |  S   S S  S S S  e     E          E         E  E       S  S  S  S  S S  e  E  E E E
e|-15--15---14-x-x-14----12----------x---------x--x----|-15-15----14--x-x-14-12-14-x-x-*|
B|-13--13---13-x-x-13----13----------x---------x--x----|-13-13----13--x-x-13-13-13-x-x-*|
G|-12--12---12-x-x-12----12----------x---------x--x----|-12-12----12--x-x-12-12-12-x-x-*|
D|-12--12---12-x-x-12----12----------x---------x--x----|-12-12----12--x-x-12-12-12-x-x-*|
A|-----------------------------------------------------|-------------------------------*|
E|-----------------------------------------------------|-------------------------------*|

Duration Legend
---------------
W - whole; H - half; Q - quarter; E - 8th; S - 16th; T - 32nd; X - 64th; a - acciaccatura
+ - note tied to previous; . - note dotted; .. - note double dotted
Uncapitalized letters represent notes that are staccato (1/2 duration)
Irregular groupings are notated above the duration line
Duration letters will always appear directly above the note/fret number it represents the
duration for.  Duration letters with no fret number below them represent rests.  Multi-
bar rests are notated in the form Wxn, where n is the number of bars to rest for.  Low
melody durations appear below the staff

Tablature Legend
----------------
 h   - hammer-on
 p   - pull-off
 b   - bend
 pb  - pre-bend
 r   - bend release (if no number after the r, then release immediately)
 /\  - slide into or out of (from/to "nowhere")
 s   - legato slide
 S   - shift slide
  - natural harmonic
[n]  - artificial harmonic
n(n) - tapped harmonic
 ~   - vibrato
 tr  - trill
 T   - tap
 TP  - trem. picking
 PM  - palm muting
\n/  - tremolo bar dip; n = amount to dip
 \n  - tremolo bar down
 n/  - tremolo bar up
/n\  - tremolo bar inverted dip
 =   - hold bend; also acts as connecting device for hammers/pulls
 <>  - volume swell (louder/softer)
 x   - on rhythm slash represents muted slash
 o   - on rhythm slash represents single note slash

Misc Legend
-----------
 |  - bar
||  - double bar
||o - repeat start
o|| - repeat end
*|  - double bar (ending)
 :  - bar (freetime)
 $  - Segno
 &  - Coda
Tempo markers -  = BPM(8/16=s8/s16), where s8 = swing 8ths, s16 = swing 16ths

            
            
Suggest correction
Creating personal tab
Creating personal tab
You can edit any tab online and save it as your Personal.

You can edit, replace or remove any tab part or add personal notes – all changes will be seen only by you.

Personal tabs can be accessed anytime from any device, even offline.
Learn more »
comments
print report bad tab
guest
You may want to rate the tab now too:
select rating
Wanna post a correction for this tab? Suggest correction