Oops, an error
Loading. Please wait.

Money Dont Matter Tonight tab

version 1
version 1

Whole song

Interactive

by Prince
668 views 9 this week
no commentswrite comment
1 2 3 4 5
2 more votes to show rating
add to favorites
×
Save as Personal and add changes to this tab that will be seen only by you. Learn more ›
×
You can save this tab as Personal to edit and correct it or add notes. All changes will be seen only by you. Learn more »
launch autoscroll
font size
0
reset
how to read this tab
guitar tuner
edit
Autoscroll
slow
fast
+/-
esc
set tempo
stop
Author
Difficulty
MONEY DON'T MATTER 2 NIGHT

As recorded by Prince
(From the 1991 Album DIAMONDS AND PEARLS)

Words and Music by Prince

Transcribed by Slowhand


Gtr I (E A D G B E) - 'Prince - Electric Guitar '
Gtr II (E A D G B E) - 'Prince - Electric Guitar '


 Intro
  Q=110
  N.C.              Cm7                   Dbmaj7
 4/4
  Gtr I (Clean El. Gtr.)
  W           a  H       +Q.     E   +W
|----------|-----------------------|-----------------|
|----------|---------------------9-|-(9)-------------|
|----------|-10s12------(12)-------|-----------------|
|----------|-----------------------|-----------------|
|----------|-----------------------|-----------------|
|----------|-----------------------|-----------------|
|
| Gtr II (Clean El. Gtr.)
| W              Q  e E   E  e Q      Q   e E E e Q
|----------|--------3--------3-----|------4-----4----|
|----------|--------4--------4-----|------6-----6----|
|----------|--------3--------3-----|------5-----5----|
|----------|--------5--------5-----|------6-----6----|
|----------|--------3--------3-----|------4-----4----|
|----------|-----------------------|-----------------|


     Ebm7                       Dbmaj7
  Q  E E +E  Q   a  E    +W
|---------------------|----------------------|
|-7--6----------------|----------------------|
|------8-(8)-6---9s10-|-(10)-----------------|
|---------------------|----------------------|
|---------------------|----------------------|
|---------------------|----------------------|
|
| Q  e e  e  e Q          Q   E e S S S S Q
|----6-------6--------|---------4---4---4----|
|----7-------7--------|---------6-6---6------|
|----6-------6--------|---------5-5----------|
|----8-------8--------|---------6------------|
|----6-------6--------|---------4------------|
|---------------------|----------------------|


         Cm7                      Dbmaj7
   a  H       +Q.      S S   +W
|--------------------------|-----------------|
|---------------------11s9-|-(9)-------------|
|-10s12------(12)----------|-----------------|
|--------------------------|-----------------|
|--------------------------|-----------------|
|--------------------------|-----------------|
|
|     Q  e E   E  e Q         Q   e E E e Q
|--------3--------3--------|------4-----4----|
|--------4--------4--------|------6-----6----|
|--------3--------3--------|------5-----5----|
|--------5--------5--------|------6-----6----|
|--------3--------3--------|------4-----4----|
|--------------------------|-----------------|


     Ebm7                   Dbmaj7
  Q  E E +E  Q   E   +W
|------------------|----------------------||
|-7--6-------------|----------------------||
|------8-(8)-6-----|----------------------||
|----------------6-|-(6)------------------||
|------------------|----------------------||
|------------------|----------------------||
|
| Q  e e  e  e Q      Q   E e S S S S Q
|----6-------6-----|--------4-4-4-4-4-----||
|----7-------7-----|--------6-6-6-6-6-----||
|----6-------6-----|--------5-5-5-5-5-----||
|----8-------8-----|--------6-6-6-6-6-----||
|----6-------6-----|--------4-4-4-4-4-----||
|------------------|----------------------||


   1st - 3rd Verses
    $
       Cm7             Dbmaj7          Ebm7              Dbmaj7
    Gtr II
    Q  e E E e Q    Q  e E E e Q    Q  e e e e Q    Q  E e S S S S Q
||-----3-----3----|----4-----4----|----6-----6----|------4-4-4-4-4----|
||o----4-----4----|----6-----6----|----7-----7----|------6-6-6-6-6----|
||-----3-----3----|----5-----5----|----6-----6----|------5-5-5-5-5----|
||-----5-----5----|----6-----6----|----8-----8----|------6-6-6-6-6----|
||o----3-----3----|----4-----4----|----6-----6----|------4-4-4-4-4----|
||----------------|---------------|---------------|-------------------|


     Cm7             Dbmaj7          Ebm7              Dbmaj7
  Q  e E E e Q    Q  e E E e Q    Q  e e e e Q    Q  E e S S S S Q
|----3-----3----|----4-----4----|----6-----6----|------4-4-4-4-4-----|
|----4-----4----|----6-----6----|----7-----7----|------6-6-6-6-6-----|
|----3-----3----|----5-----5----|----6-----6----|------5-5-5-5-5-----|
|----5-----5----|----6-----6----|----8-----8----|------6-6-6-6-6-----|
|----3-----3----|----4-----4----|----6-----6----|------4-4-4-4-4-----|
|---------------|---------------|---------------|--------------------|


     Cm7             Dbmaj7          Ebm7              Dbmaj7
  Q  e E E e Q    Q  e E E e Q    Q  e e e e Q    Q  E e S S S S Q
|----3-----3----|----4-----4----|----6-----6----|------4-4-4-4-4-----|
|----4-----4----|----6-----6----|----7-----7----|------6-6-6-6-6-----|
|----3-----3----|----5-----5----|----6-----6----|------5-5-5-5-5-----|
|----5-----5----|----6-----6----|----8-----8----|------6-6-6-6-6-----|
|----3-----3----|----4-----4----|----6-----6----|------4-4-4-4-4-----|
|---------------|---------------|---------------|--------------------|


     Cm7             Dbmaj7          Ebm7     Dbmaj7
  Q  e E E e Q    Q  e E E e Q    Q  e e Q  E e   E Q.   +Q   Q
|----3-----3----|----4-----4----|----6--------4-|---4----(4)------||
|----4-----4----|----6-----6----|----7--------6-|---6----(6)------||
|----3-----3----|----5-----5----|----6--------5-|---5----(5)------||
|----5-----5----|----6-----6----|----8--------6-|---6----(6)------||
|----3-----3----|----4-----4----|----6--------4-|---4----(4)------||
|---------------|---------------|---------------|-----------------||


 Chorus
     Cm7             Dbmaj7          Ebm7              Dbmaj7
  Q  e E E e Q    Q  e E E e Q    Q  e e e e Q    Q  E e S S S S Q
|----3-----3----|----4-----4----|----6-----6----|------4-4-4-4-4-----|
|----4-----4----|----6-----6----|----7-----7----|------6-6-6-6-6-----|
|----3-----3----|----5-----5----|----6-----6----|------5-5-5-5-5-----|
|----5-----5----|----6-----6----|----8-----8----|------6-6-6-6-6-----|
|----3-----3----|----4-----4----|----6-----6----|------4-4-4-4-4-----|
|---------------|---------------|---------------|--------------------|


     Cm7             Dbmaj7          Ebm7              Dbmaj7
  Q  e E E e Q    Q  e E E e Q    Q  e e e e Q    Q  E e S S S S Q
|----3-----3----|----4-----4----|----6-----6----|------4-4-4-4-4-----|
|----4-----4----|----6-----6----|----7-----7----|------6-6-6-6-6-----|
|----3-----3----|----5-----5----|----6-----6----|------5-5-5-5-5-----|
|----5-----5----|----6-----6----|----8-----8----|------6-6-6-6-6-----|
|----3-----3----|----4-----4----|----6-----6----|------4-4-4-4-4-----|
|---------------|---------------|---------------|--------------------|


     Cm7             Dbmaj7          Ebm7              Dbmaj7
  Q  e E E e Q    Q  e E E e Q    Q  e e e e Q    Q  E e S S S S Q
|----3-----3----|----4-----4----|----6-----6----|------4-4-4-4-4-----|
|----4-----4----|----6-----6----|----7-----7----|------6-6-6-6-6-----|
|----3-----3----|----5-----5----|----6-----6----|------5-5-5-5-5-----|
|----5-----5----|----6-----6----|----8-----8----|------6-6-6-6-6-----|
|----3-----3----|----4-----4----|----6-----6----|------4-4-4-4-4-----|
|---------------|---------------|---------------|--------------------|


                                                         To Coda
     Cm7             Dbmaj7          Ebm7     Dbmaj7
  Q  e E E e Q    Q  e E E e Q    Q  e e Q  E e   E Q.   +Q   Q
|----3-----3----|----4-----4----|----6--------4-|---4----(4)-------||
|----4-----4----|----6-----6----|----7--------6-|---6----(6)------o||
|----3-----3----|----5-----5----|----6--------5-|---5----(5)-------||
|----5-----5----|----6-----6----|----8--------6-|---6----(6)-------||
|----3-----3----|----4-----4----|----6--------4-|---4----(4)------o||
|---------------|---------------|---------------|------------------||


 Interlude
         Cm7                   Dbmaj7
   a  H       +Q.     E   +W
|-----------------------|-----------------|
|---------------------9-|-(9)-------------|
|-10s12------(12)-------|-----------------|
|-----------------------|-----------------|
|-----------------------|-----------------|
|-----------------------|-----------------|
|
| Gtr II
|     Q  e E   E  e Q      Q   e E E e Q
|--------3--------3-----|------4-----4----|
|--------4--------4-----|------6-----6----|
|--------3--------3-----|------5-----5----|
|--------5--------5-----|------6-----6----|
|--------3--------3-----|------4-----4----|
|-----------------------|-----------------|


     Ebm7                       Dbmaj7
  Q  E E +E  Q   a  E    +W
|---------------------|-----------------------|
|-7--6----------------|-----------------------|
|------8-(8)-6---9s10-|-(10)------------------|
|---------------------|-----------------------|
|---------------------|-----------------------|
|---------------------|-----------------------|
|
| Q  e e  e  e Q          Q   E e S S S S Q
|----6-------6--------|---------4-4-4-4-4-----|
|----7-------7--------|---------6-6-6-6-6-----|
|----6-------6--------|---------5-5-5-5-5-----|
|----8-------8--------|---------6-6-6-6-6-----|
|----6-------6--------|---------4-4-4-4-4-----|
|---------------------|-----------------------|


         Cm7                     Dbmaj7
   a  H       +Q.      S  S   W
|---------------------------|---------------|
|---------------------11s10s|=9-------------|
|-10s12------(12)-----------|---------------|
|---------------------------|---------------|
|---------------------------|---------------|
|---------------------------|---------------|
|
|     Q  e E   E  e Q         Q  e E E e Q
|--------3--------3---------|----4-----4----|
|--------4--------4---------|----6-----6----|
|--------3--------3---------|----5-----5----|
|--------5--------5---------|----6-----6----|
|--------3--------3---------|----4-----4----|
|---------------------------|---------------|


                                  D.S. al Coda
     Ebm7                   N.C.
  Q  E E +E  Q   E   +W
|------------------|----------------------------||
|-7--6-------------|----------------------------||
|------8-(8)-6-----|----------------------------||
|----------------6-|-(6)------------------------||
|------------------|----------------------------||
|------------------|----------------------------||
|
| Q  e e  e  e Q      Q   E S  S S S S  S E E
|----6-------6-----|----------------------------||
|----7-------7-----|--------9s11s9---9s11s9-----||
|----6-------6-----|--------8s10s8---8s10s8-----||
|----8-------8-----|----------------------------||
|----6-------6-----|----------------------------||
|------------------|----------------------------||


 Out-Chorus
  &
         Cm7                   Dbmaj7
   a  H       +Q.     E   +W
|-----------------------|-----------------|
|---------------------9-|-(9)-------------|
|-10s12------(12)-------|-----------------|
|-----------------------|-----------------|
|-----------------------|-----------------|
|-----------------------|-----------------|
|
|     Q  e E   E  e Q      Q   e E E e Q
|--------3--------3-----|------4-----4----|
|--------4--------4-----|------6-----6----|
|--------3--------3-----|------5-----5----|
|--------5--------5-----|------6-----6----|
|--------3--------3-----|------4-----4----|
|-----------------------|-----------------|


     Ebm7                       Dbmaj7
  Q  E E +E  Q   a  E    +W
|---------------------|-----------------------|
|-7--6----------------|-----------------------|
|------8-(8)-6---9s10-|-(10)------------------|
|---------------------|-----------------------|
|---------------------|-----------------------|
|---------------------|-----------------------|
|
| Q  e e  e  e Q          Q   E e S S S S Q
|----6-------6--------|---------4-4-4-4-4-----|
|----7-------7--------|---------6-6-6-6-6-----|
|----6-------6--------|---------5-5-5-5-5-----|
|----8-------8--------|---------6-6-6-6-6-----|
|----6-------6--------|---------4-4-4-4-4-----|
|---------------------|-----------------------|


         Cm7                     Dbmaj7
   a  H       +Q.      S  S   W
|---------------------------|---------------|
|---------------------11s10s|=9-------------|
|-10s12------(12)-----------|---------------|
|---------------------------|---------------|
|---------------------------|---------------|
|---------------------------|---------------|
|
|     Q  e E   E  e Q         Q  e E E e Q
|--------3--------3---------|----4-----4----|
|--------4--------4---------|----6-----6----|
|--------3--------3---------|----5-----5----|
|--------5--------5---------|----6-----6----|
|--------3--------3---------|----4-----4----|
|---------------------------|---------------|


     Ebm7                   Dbmaj7
  Q  E E +E  Q   E   +W
|------------------|----------------------|
|-7--6-------------|----------------------|
|------8-(8)-6-----|----------------------|
|----------------6-|-(6)------------------|
|------------------|----------------------|
|------------------|----------------------|
|
| Q  e e  e  e Q      Q   E e S S S S Q
|----6-------6-----|--------4-4-4-4-4-----|
|----7-------7-----|--------6-6-6-6-6-----|
|----6-------6-----|--------5-5-5-5-5-----|
|----8-------8-----|--------6-6-6-6-6-----|
|----6-------6-----|--------4-4-4-4-4-----|
|------------------|----------------------|


         Cm7                   Dbmaj7
   a  H       +Q.     E   +W
|-----------------------|-----------------|
|---------------------9-|-(9)-------------|
|-10s12------(12)-------|-----------------|
|-----------------------|-----------------|
|-----------------------|-----------------|
|-----------------------|-----------------|
|
|     Q  e E   E  e Q      Q   e E E e Q
|--------3--------3-----|------4-----4----|
|--------4--------4-----|------6-----6----|
|--------3--------3-----|------5-----5----|
|--------5--------5-----|------6-----6----|
|--------3--------3-----|------4-----4----|
|-----------------------|-----------------|


     Ebm7                       Dbmaj7
  Q  E E +E  Q   a  E    +W
|---------------------|-----------------------|
|-7--6----------------|-----------------------|
|------8-(8)-6---9s10-|-(10)------------------|
|---------------------|-----------------------|
|---------------------|-----------------------|
|---------------------|-----------------------|
|
| Q  e e  e  e Q          Q   E e S S S S Q
|----6-------6--------|---------4-4-4-4-4-----|
|----7-------7--------|---------6-6-6-6-6-----|
|----6-------6--------|---------5-5-5-5-5-----|
|----8-------8--------|---------6-6-6-6-6-----|
|----6-------6--------|---------4-4-4-4-4-----|
|---------------------|-----------------------|


         Cm7                     Dbmaj7
   a  H       +Q.      S  S   W
|---------------------------|---------------|
|---------------------11s10s|=9-------------|
|-10s12------(12)-----------|---------------|
|---------------------------|---------------|
|---------------------------|---------------|
|---------------------------|---------------|
|
|     Q  e E   E  e Q         Q  e E E e Q
|--------3--------3---------|----4-----4----|
|--------4--------4---------|----6-----6----|
|--------3--------3---------|----5-----5----|
|--------5--------5---------|----6-----6----|
|--------3--------3---------|----4-----4----|
|---------------------------|---------------|


     Ebm7        Dbmaj7
  Q  E E +E  Q   E   E Q.   +H       +W
|------------------|---------------|--------*|
|-7--6-----------6-|---------------|--------*|
|------8-(8)-6-----|---------------|--------*|
|------------------|---6----(6)----|-(6)----*|
|------------------|---------------|--------*|
|------------------|---------------|--------*|
|
| Q  e e  e  e E e   E Q.   +H       +W
|----6-------6---4-|---4----(4)----|-(4)----*|
|----7-------7---6-|---6----(6)----|-(6)----*|
|----6-------6---5-|---5----(5)----|-(5)----*|
|----8-------8---6-|---6----(6)----|-(6)----*|
|----6-------6---4-|---4----(4)----|-(4)----*|
|------------------|---------------|--------*|


Duration Legend
---------------
W - whole; H - half; Q - quarter; E - 8th; S - 16th; T - 32nd; X - 64th; a - acciaccatura
+ - note tied to previous; . - note dotted; .. - note double dotted
Uncapitalized letters represent notes that are staccato (1/2 duration)
Irregular groupings are notated above the duration line
Duration letters will always appear directly above the note/fret number it represents the
duration for.  Duration letters with no fret number below them represent rests.  Multi-
bar rests are notated in the form Wxn, where n is the number of bars to rest for.  Low
melody durations appear below the staff

Tablature Legend
----------------
 h   - hammer-on
 p   - pull-off
 b   - bend
 pb  - pre-bend
 r   - bend release (if no number after the r, then release immediately)
 /\  - slide into or out of (from/to "nowhere")
 s   - legato slide
 S   - shift slide
  - natural harmonic
[n]  - artificial harmonic
n(n) - tapped harmonic
 ~   - vibrato
 tr  - trill
 T   - tap
 TP  - trem. picking
 PM  - palm muting
\n/  - tremolo bar dip; n = amount to dip
 \n  - tremolo bar down
 n/  - tremolo bar up
/n\  - tremolo bar inverted dip
 =   - hold bend; also acts as connecting device for hammers/pulls
 <>  - volume swell (louder/softer)
 x   - on rhythm slash represents muted slash
 o   - on rhythm slash represents single note slash

Misc Legend
-----------
 |  - bar
||  - double bar
||o - repeat start
o|| - repeat end
*|  - double bar (ending)
 :  - bar (freetime)
 $  - Segno
 &  - Coda
Tempo markers -  = BPM(8/16=s8/s16), where s8 = swing 8ths, s16 = swing 16ths

            
            
Suggest correction
Creating personal tab
Creating personal tab
You can edit any tab online and save it as your Personal.

You can edit, replace or remove any tab part or add personal notes – all changes will be seen only by you.

Personal tabs can be accessed anytime from any device, even offline.
Learn more »
Give kudos to tab author, rate the tab!
1 2 3 4 5
comments
print report bad tab
guest
You may want to rate the tab now too:
select rating
Wanna post a correction for this tab? Suggest correction