Oops, an error
Loading. Please wait.

Mountains bass

by Prince
149 views 1 this week
no commentswrite comment
1 2 3 4 5
2 more votes to show rating
add to favorites
×
Save as Personal and add changes to this tab that will be seen only by you. Learn more ›
×
You can save this tab as Personal to edit and correct it or add notes. All changes will be seen only by you. Learn more »
launch autoscroll
font size
0
reset
guitar tuner
edit
Autoscroll
slow
fast
+/-
esc
set tempo
stop
Author
Difficulty
                                    Mountains
                                      Prince

Bass                                                              Prince 


As played by Prince

In 2/2

Intro

6 Bars Rest

|-----------------|-----------------|
|-----------------|-----------------|
|-----------------|-----------------|
|-----3/--8\--3---|-0-----1-----3---|
  Q   Q   Q   Q     Q.    Q.    Q

||------------------|-----------------|-----------------|-----------------|
||o-----3-5-5-------|-----3-5-5-------|-----3-5-5-------|-----------------|
||o-----------------|-----------------|-----------------|-----------------|
||--3-----------3-3-|-3-----------3-3-|-3-----------3-3-|-0-----1-----3---|
    Q   E E Q   E E   Q   E E Q   E E   Q   E E Q   E E   Q.    Q.    Q

|-----------------|-----------------|-----------------|------------------||
|-----3-5-5-------|-----3-5-5-------|-----3-5-5-------|-----------------o||
|-----------------|-----------------|-----------------|-----------------o||
|-3-----------3-3-|-3-----------3-3-|-3-----------3-3-|-0-----1-----3----||
  Q   E E Q   E E   Q   E E Q   E E   Q   E E Q   E E   Q.    Q.    Q

Verse 1

||------------------|-----------------|-----------------|-----------------|
||o-----3-5-5-------|-----3-5-5-------|-----3-5-5-------|-----------------|
||o-----------------|-----------------|-----------------|-----------------|
||--3-----------3-3-|-3-----------3-3-|-3-----------3-3-|-0-----1-----3-3-|
    Q   E E Q   E E   Q   E E Q   E E   Q   E E Q   E E   Q.    Q.    E E

                                                                       x3
|-----------------|-----------------|-----------------|------------------||
|-----3-5-5-------|-----3-5-5-------|-----3-5-5-------|-----------------o||
|-----------------|-----------------|-----------------|-----------------o||
|-3-----------3-3-|-3-----------3-3-|-3-----------3-3-|-0-----1-----3-3--||
  Q   E E Q   E E   Q   E E Q   E E   Q   E E Q   E E   Q.    Q.    E E

|-----------------|-----------------|-----------------|-----------------|
|-----3-5-5-------|-----3-5-5-------|-----3-5-5-------|-----------------|
|-----------------|-----------------|-----------------|-----------------|
|-3-----------3-3-|-3-----------3-3-|-3-----------3-3-|-0-----1-----3-3-|
  Q   E E Q   E E   Q   E E Q   E E   Q   E E Q   E E   Q.    Q.    E E

|-----------------|-----------------|-----------------|
|-----3-5-5-------|-----3-5-5-------|-----3-5-5-------|
|-----------------|-----------------|-----------------|
|-3-----------3-3-|-3-----------3-3-|-3-----------3-3-|
  Q   E E Q   E E   Q   E E Q   E E   Q   E E Q   E E 

Pre-Chorus 1

|-----------------|-----------------|-----------------|-----------------|
|-5-----3---------|-5-----3---------|-5-----3---------|-3-----3-----5---|
|-------------5---|-------------5---|-------------5---|-----------------|
|-----------------|-----------------|-----------------|-----------------|
  Q.    Q.    Q     Q.    Q.    Q     Q.    Q.    Q     Q   E Q.    Q

|-----------------|-----------------|-----------------|-----------------|
|-5-------3---3---|-5-------3---3---|-5-----3---------|-5-----3---------|
|-----------5---5-|-----------5---5-|-------------5---|-------------5---|
|-----------------|-----------------|-----------------|-----------------|
  Q.    E E E E E   Q.    E E E E E   Q.    Q.    Q     Q.    Q.    Q   

|-----------------|-----------------|-----------------|-----------------|
|-5-----3---------|-3-----3-----5---|-5-------3---3---|-5-------3---3---|
|-------------5---|-----------------|-----------5---5-|-----------5---5-|
|-----------------|-----------------|-----------------|-----------------|
  Q.    Q.    Q     Q   E Q.    Q     Q.    E E E E E   Q.    E E E E E 

|-----------------|
|-----------------|
|-----------------|
|-0-----1-----3---|
  Q.    Q.    Q

Chorus 1

||------------------|-----------------|-----------------|-----------------|
||o-----3-5-5-------|-----3-5-5-------|-----3-5-5-------|-----------------|
||o-----------------|-----------------|-----------------|-----------------|
||--3-----------3-3-|-3-----------3-3-|-3-----------3-3-|-0-----1-----3---|
    Q   E E Q   E E   Q   E E Q   E E   Q   E E Q   E E   Q.    Q.    Q

|-----------------|-----------------|-----------------|------------------||
|-----3-5-5-------|-----3-5-5-------|-----3-5-5-------|-----------------o||
|-----------------|-----------------|-----------------|-----------------o||
|-3-----------3-3-|-3-----------3-3-|-3-----------3-3-|-0-----1-----3----||
  Q   E E Q   E E   Q   E E Q   E E   Q   E E Q   E E   Q.    Q.    Q

Verse 2
                                                                         x3
||------------------|-----------------|-----------------|------------------||
||o-----3-5-5-------|-----3-5-5-------|-----3-5-5-------|-----------------o||
||o-----------------|-----------------|-----------------|-----------------o||
||--3-----------3-3-|-3-----------3-3-|-3-----------3-3-|-0-----1-----3-3--||
    Q   E E Q   E E   Q   E E Q   E E   Q   E E Q   E E   Q.    Q.    E E

|-----------------|-----------------|-----------------|
|-----3-5-5-------|-----3-5-5-------|-----3-5-5-------|
|-----------------|-----------------|-----------------|
|-3-----------3-3-|-3-----------3-3-|-3-----------3-3-|
  Q   E E Q   E E   Q   E E Q   E E   Q   E E Q   E E 

Pre-Chorus 2

|-----------------|-----------------|-----------------|-----------------|
|-5-----3---------|-5-----3---------|-5-----3---------|-3-----3-----5---|
|-------------5---|-------------5---|-------------5---|-----------------|
|-----------------|-----------------|-----------------|-----------------|
  Q.    Q.    Q     Q.    Q.    Q     Q.    Q.    Q     Q   E Q.    Q

|-----------------|-----------------|-----------------|-----------------|
|-5-------3---3---|-5-------3---3---|-5-----3---------|-5-----3---------|
|-----------5---5-|-----------5---5-|-------------5---|-------------5---|
|-----------------|-----------------|-----------------|-----------------|
  Q.    E E E E E   Q.    E E E E E   Q.    Q.    Q     Q.    Q.    Q   

|-----------------|-----------------|-----------------|-----------------|
|-5-----3---------|-3-----3-----5---|-5-------3---3---|-5-------3---3---|
|-------------5---|-----------------|-----------5---5-|-----------5---5-|
|-----------------|-----------------|-----------------|-----------------|
  Q.    Q.    Q     Q   E Q.    Q     Q.    E E E E E   Q.    E E E E E 

|-----------------|
|-----------------|
|-----------------|
|-0-----1-----3---|
  Q.    Q.    Q

Chorus 2

||------------------|-----------------|-----------------|-----------------|
||o-----3-5-5-------|-----3-5-5-------|-----3-5-5-------|-----------------|
||o-----------------|-----------------|-----------------|-----------------|
||--3-----------3-3-|-3-----------3-3-|-3-----------3-3-|-0-----1-----3---|
    Q   E E Q   E E   Q   E E Q   E E   Q   E E Q   E E   Q.    Q.    Q

|-----------------|-----------------|-----------------|------------------||
|-----3-5-5-------|-----3-5-5-------|-----3-5-5-------|-----------------o||
|-----------------|-----------------|-----------------|-----------------o||
|-3-----------3-3-|-3-----------3-3-|-3-----------3-3-|-0-----1-----3----||
  Q   E E Q   E E   Q   E E Q   E E   Q   E E Q   E E   Q.    Q.    Q

Break

|----------------|-----------------|
|--- 15 Bars  ---|-----------------|
|---   Rest   ---|-----------------|
|----------------|-0-----1-----3---|
                   Q.    Q.    Q

Chorus 3
                                                                         x3
||------------------|-----------------|-----------------|------------------||
||o-----3-5-5-------|-----3-5-5-------|-----3-5-5-------|-----------------o||
||o-----------------|-----------------|-----------------|-----------------o||
||--3-----------3-3-|-3-----------3-3-|-3-----------3-3-|-0-----1-----3-3--||
    Q   E E Q   E E   Q   E E Q   E E   Q   E E Q   E E   Q.    Q.    E E

|-----------------|-----------------|-------------------------|
|-----3-5-5-------|-----3-5-5-------|-----5-5-5-6-6---6-------|
|-----------------|-----------------|-------------------------|
|-3-----------3-3-|-3-----------3-3-|-3-----------------------|
  Q   E E Q   E E   Q   E E Q   E E   Q   E E E E Q   H

Break 2

|-----------------|-----------------|-----------------|-----------------|
|-----------------|-----------------|-----------------|-----------------|
|-6---------------|(6)--------------|-5---------------|(5)--------------|
|-----------------|-----------------|-----------------|-----------------|
  W                 W                 W                 W

|-----------------|-----------------|-----------------|-----------------|
|-----------------|-----------------|-----------------|-----------------|
|-----------------|-----------------|-----------------|-----------------|
|-3---------------|(3)--------------|-5---------------|-4---------------|
  W                 W                 W                 W

|-----------------|-----------------|-----------------|-----------------|
|-----------------|-----------------|-----------------|-----------------|
|-----------------|-----------------|-2---------------|(2)--------------|
|-3---------------|-2---------------|-----------------|-----------------|
  W                 W                 W                 W

|-----------------|-----------------|-----------------|-----------------|
|-----------------|-----------------|-----------------|-----------------|
|-5---------------|(5)--------------|-2---------------|(2)--------------|
|-----------------|-----------------|-----------------|-----------------|
  W                 W                 W                 W

|-----------------|-----------------|-----------------|-----------------|
|-----------------|-----------------|-----------------|-----------------|
|-5---------------|(5)--------------|-5---------------|-----------------|
|-----------------|-----------------|-----------------|-3---------------|
  W                 W                 W                 W

|-----------------|-----------------|-----------------|-----------------|
|/5---------------|-----------------|-----------------|-----------------|
|-----------------|-----------------|-----------------|-----------------|
|---------4-------|(4)--------------|(4)--------------|(4)--------------|
  Q   Q   H         W                 W                 W

|-----------------|-----------------|-----------------|-----------------|
|-----------------|-----------------|-----------------|-----------------|
|-----------------|-----------------|-----------------|-----------------|
|-4---------------|(4)--------------|-----------------|-----------------|
  W                 W                 W                 W

Outro

|-----------------|-----------------|-----------------|-----------------|
|-----------------|-----6-6-6-4---6-|-----6-6-6-------|-----6-6-6-4---6-|
|-----------------|-------------6---|-----------------|-------------6---|
|-4-------4---4-4-|-4---------------|-------------4-4-|-4---------------|
  Q   Q   Q   E E   Q   E E E E E E   Q   E E E E E E   Q   E E E E E E

|-----------------|-----------------|-----------------|-----------------|
|-----6-6-6-------|-----6-6-6-4---6-|-------6---------|-----6-6-6-------|
|-----------------|-------------6---|-----------------|-----------------|
|-------------4-4-|-4---------------|---------------4-|(4)----------4---|
  Q   E E Q   E E   Q   E E E E E E   Q   E Q.    E E   Q   E E Q   Q 

|-----------------|-----------------|-----------------|-----------------|
|-----6-6---------|-----6-6-6-4---6-|-----------------|-----6-6-6-------|
|-----------------|-------------6---|-----------------|-----------------|
|-4-------4---4-4-|-4---------------|-------4-------4-|-4---------------|
  Q   E E Q   E E   Q   E E E E E E   Q   E Q.    E E   Q   E E Q   Q

|-----------------|-----------------||
|-----6-6---------|-----6-6---------||
|-----------------|-----------------||
|---------4---4-4-|---------4---4-4-|| 
  Q   E E Q   E E   Q   E E Q   E E 


Key to rhythm notations:

W - Whole Note/Semi-Brieve
H - Half Note/Minim
Q - Quarter Note/Crotchet       Q. - Dotted Quarter Note
E - Eight Note/Quaver           E. - Dotted Eight Note
S - Sixteenth Note/Semi-Quaver  S. - Dotted Sixteenth Note

            
            
Suggest correction
Creating personal tab
Creating personal tab
You can edit any tab online and save it as your Personal.

You can edit, replace or remove any tab part or add personal notes – all changes will be seen only by you.

Personal tabs can be accessed anytime from any device, even offline.
Learn more »
Give kudos to tab author, rate the tab!
1 2 3 4 5
comments
print report bad tab
guest
You may want to rate the tab now too:
select rating
Wanna post a correction for this tab? Suggest correction