Oops, an error
Loading. Please wait.

Peach Bass Tab

3,186 views 9 this week
1 commentread comment
1 2 3 4 5
3 more votes to show rating
add to favorites
launch autoscroll
font size
0
reset
guitar tuner
×
Best way to learn
"Peach"
Autoscroll
slow
fast
+/-
esc
set tempo
stop
From: burzlaff@lisisun.univ-lyon1.fr (Max mad)
Newsgroups: alt.music.prince
Date: 20 Mar 1995 17:12:32 GMT

"Peach", by Prince.

Yeah I know, it's a basic R'n'R bass line, but
hey, I only started playing 4 months ago :)
Maybe it'll help another beginner :)

And maybe others will post more interesting Prince btabs :)
	
Enhancements welcome, at burzlaff@lisisun.univ-lyon1.fr

So that's how I play it :

(spoken intro skipped)

Beginning / on "She's a peach"
G --------------------
D --------------------
A -5-3-2-1-0----------
E -----------3-4-5----


G --------------------
D --------------------
A -5---5-5-5-5-5-5---- *4
E --------------------
   She was dark, 
   she was tan
   She made me
   glad to be a man

G --------------------
D --------------------
A --------------------  *2
E -3---3-3-3-3-3-3---- 
   She was young
   she was smart

G --------------------
D --------------------
A -5---5-5-5-5-5-5----   *2
E --------------------
   Just one glance 
   and she stole my heart

G --------------------------------------
D --------------------------------------
E -2------------------------------------
A --------------------3-----------------
   The kinda girl you wanna teach

Max mad

Suggest correction
Give kudos to tab author, rate the tab!
1 2 3 4 5
comments
print report bad tab
1 comment total.
0 reply
grufti49 10 May 03, 2014 05:31 AM

G --------------------------------------
D --------------------------------------
A -2------------------------------------
E --------------------3-----------------
The kinda girl you wanna teach

guest
You may want to rate the tab now too:
select rating
Wanna post a correction for this tab? Suggest correction