Oops, an error
Loading. Please wait.

Purple Rain Tab

version 2
version 2

Solo

  • This Is the Most Correct Version, The others have ... Show more

Whole song

119,261 views 201 this week
1 commentread comment
1 2 3 4 5
x 33
add to favorites
launch autoscroll
font size
0
reset
how to read this tab
guitar tuner
Autoscroll
slow
fast
+/-
esc
set tempo
stop
Help us to improve Ultimate-Guitar.com Take our survey!
×
Author
Difficulty
intermediate
3.46
e|----------13>>>---------------------------20(p)--------------------|
B|-------13b>>>>>------11-10-11---------------------------15-15------|
G|-----------------------------10-12----------------------15-15------|
D|-------------------------------------------------------------------|
A|-------------------------------------------------------------------|
E|-------------------------------------------------------------------|

3.57
e|---15>>>>>>>-----------------------------------------------|
B|---18b20r18b20------18p15---15-----------------------------|
G|-------------------------17----17-15----15-17-15-----------|
D|-------------------------------------17----------17-15>>---|
A|-----------------------------------------------------------|
E|-----------------------------------------------------------|

4.02
e|---15>>>>>>--------------------------------------------------|
B|---18b20>>>------18p15---15----------------------------------|
G|-------------------------17----17-15----15-17-15-------------|
D|-------------------------------------17----------17-15-17>>>-|
A|-------------------------------------------------------------|
E|-------------------------------------------------------------|

4.05                    (....hold these like track...)
e|---------------------------------------------------------|
B|---18------------15/---15---15---15---15-----------------|
G|---17b---15>>>---15/---15---15---15---15-----------------|
D|---------------------------------------------------------|
A|---------------------------------------------------------|
E|---------------------------------------------------------|

4.19
e|---------18b20r19b20r19b20r19b20r18>>>>>---------15-17-18-15-17-18--|
B|--20-18-------------------------------------------------------------|
G|--------------------------------------------------------------------|
D|--------------------------------------------------------------------|
A|--------------------------------------------------------------------|
E|--------------------------------------------------------------------|

4.25
e|-15-17-18-15-17-18-20b22r20-------20b22r20-------------|
B|----------------------------18-18----------18-18-------|
G|-------------------------------------------------------|
D|-------------------------------------------------------|
A|-------------------------------------------------------|
E|-------------------------------------------------------|

4.31
e|-------------------------------------------------------------------------------|
B|--18h20p18---18----------------------------------------------------------------|
G|-----------20--20-18----18-----------------------------------------------------|
D|---------------------20----20-18/15>>>---6-8-6-8-6-8-6-8-8-6-------------------|
A|------------------------------------------------------------8-7-6-4-6-4--------|
E|-----------------------------------------------------------------------6-4>>>--|

4.40
e|-----------------------------------------------------------|
B|--11-10-11-10-11-10-11/13-----10-11-10-11-10-11-10-11/13---|
G|----------------------------12-----------------------------|
D|-----------------------------------------------------------|
A|-----------------------------------------------------------|
E|-----------------------------------------------------------|

4.48
e|-------------------------------------13>>>>>------------------|
B|---10-11-10-11-10-11-10-11/13>>>>>----13b15r13----------------|
G|-12-----------------------------------------------------------|
D|--------------------------------------------------------------|
A|--------------------------------------------------------------|
E|--------------------------------------------------------------|

4.58
e|-----------------------------------------------------------|
B|--11-10-11-10-11-10-11/13-----10-11-10-11-10-11-10-11/13---|
G|----------------------------12-----------------------------|
D|-----------------------------------------------------------|
A|-----------------------------------------------------------|
E|-----------------------------------------------------------|

5.05
e|------------------------------------------------------------------------|
B|---10-11-10-11-10-11-10-11b14r11>>--------------------------------------|
G|--12--------------------------------3>>-3>>--------3-3------------------|
D|------------------------------------1>>-0>>--------1-0------------------|
A|-------------------------------------------3-1>>------3-1>>>------------|
E|------------------------------------------------------------------------|

5.16
e|---------------------------------------------------13------------|
B|--18b20r18--16/15-14\15--16b17r16--15/13--15b16r15---13/11-------|
G|-----------------------------------------------------------------|
D|-----------------------------------------------------------------|
A|-----------------------------------------------------------------|
E|-----------------------------------------------------------------|

5.27
e|-------------------------------------------------------------------13------|
B|------------------18b20r18--16/15-14\15--16b17r16--15/13--15b16r15---13/11-|
G|-3>>-3>>-----3-3-----------------------------------------------------------|
D|-1>>-0>>-----1-0-----------------------------------------------------------|
A|-------- 3-1>>--3-1>-------------------------------------------------------|
E|---------------------------------------------------------------------------|

5.45
e|-------------------------------------------------------------------13------|
B|------------------18b20r18--16/15-14\15--16b17r16--15/13--15b16r15---13/11-|
G|-3>>-3>>-----3-3-----------------------------------------------------------|
D|-1>>-0>>-----1-0-----------------------------------------------------------|
A|-------- 3-1>>--3-1>-------------------------------------------------------|
E|---------------------------------------------------------------------------|

6.01
e|---------------------------------------------------------------------------|
B|--------------------11-10-11-10-11-10-11/13-----10-11-10-11-10-11-10-11/13-|
G|-3>>-3>>----3-3--------------------------------12--------------------------|
D|-1>>-0>>----1-0------------------------------------------------------------|
A|--------3-1>>--3-1>>-------------------------------------------------------|
E|---------------------------------------------------------------------------|

6.13
e|--------------------------------20(p)----|
B|---10-11-10-11-10-11-10-11/13------------|
G|-12--------------------------------------|
D|-----------------------------------------|
A|-----------------------------------------|
E|-----------------------------------------|


************************************

(P)   pinched harmonic
>     hold
b     bend
r     rebend

************************************
Suggest correction
comments
print report bad tab
1 comment total.
0 reply
MagnusBro 10 Jul 16, 2016 05:03 PM

not right att all. notes are good but he doesnt play them in that positions. for example he play the intro bend like this g(3) string 17freet and bend and so on.

guest
You may want to rate the tab now too:
select rating
Wanna post a correction for this tab? Suggest correction