Oops, an error
Loading. Please wait.

Raspberry Beret tab

version 1
version 1

Whole song

Interactive

by Prince
1,352 views 9 this week
no commentswrite comment
1 2 3 4 5
3 more votes to show rating
add to favorites
×
Save as Personal and add changes to this tab that will be seen only by you. Learn more ›
×
You can save this tab as Personal to edit and correct it or add notes. All changes will be seen only by you. Learn more »
launch autoscroll
font size
0
reset
how to read this tab
guitar tuner
edit
Autoscroll
slow
fast
+/-
esc
set tempo
stop
Author
Difficulty
RASPBERRY BERET

As recorded by Prince
(From the 1985 Album AROUND THE WORLD IN A DAY)

Words and Music by Prince

Transcribed by Slowhand


Gtr I (E A D G B E) - 'Prince - Acoustic Guitar'
Gtr II (E A D G B E) - 'Prince - Acoustic Guitar'


 Intro
  Q=120
 4/4
  Gtr I (Ac. Gtr.)
  W          W          W          W
|----------|----------|----------|------|
|----------|----------|----------|------|
|----------|----------|----------|------|
|----------|----------|----------|------|
|----------|----------|----------|------|
|----------|----------|----------|------|


    Asus2   Gadd9     F#m
    Gtr I
    E E E E E E E E   E E E E +E  E E E
||--0-0-0-0---------|-2-2-2-2-(2)-2-2-2-|
||o-0-0-0-0-0-0-0-0-|-2-2-2-2-(2)-2-2-2-|
||--2-2-2-2-2-2-2-2-|-2-2-2-2-(2)-2-2-2-|
||--2-2-2-2-0-0-0-0-|-4-4-4-4-(4)-4-4-4-|
||o-0-0-0-0---------|-------------------|
||----------3-3-3-3-|-2-2-2-2-(2)-2-2-2-|
|
|   Gtr II (Ac. Gtr.)
|   E E E E E E E E   E E E E +E  E E E
||--0-0-0-0---------|-2-2-2-2-(2)-2-2-2-|
||o-2-2-2-2-0-0-0-0-|-2-2-2-2-(2)-2-2-2-|
||--2-2-2-2-2-2-2-2-|-2-2-2-2-(2)-2-2-2-|
||--2-2-2-2-0-0-0-0-|-4-4-4-4-(4)-4-4-4-|
||o-0-0-0-0---------|-------------------|
||----------3-3-3-3-|-2-2-2-2-(2)-2-2-2-|


  Gadd9                     A
  E E E E +E  E E E   E E E E +E  E E E
|-------------------|-------0-(0)-0------||
|-0-0-0-0-(0)-0-0-0-|-0-0-0-2-(2)---3p2-o||
|-2-2-2-2-(2)-2-2-2-|-2-2-2-2-(2)--------||
|-0-0-0-0-(0)-0-0-0-|-0-0-0-2-(2)--------||
|-------------------|-------0-(0)-------o||
|-3-3-3-3-(3)-3-3-3-|-3-3-3--------------||
|
| E E E E +E  E E E   E E E E +E  E E E
|-------------------|-------0-(0)-0-0-0--||
|-0-0-0-0-(0)-0-0-0-|-0-0-0-2-(2)-2-2-2-o||
|-2-2-2-2-(2)-2-2-2-|-2-2-2-2-(2)-2-2-2--||
|-0-0-0-0-(0)-0-0-0-|-0-0-0-2-(2)-2-2-2--||
|-------------------|-------0-(0)-0-0-0-o||
|-3-3-3-3-(3)-3-3-3-|-3-3-3--------------||


   1st & 3rd Verses
    A     G           F#m                 G                         A
    E E E E E E E E   E E E E +E  E E E   E E E E +E  E E E   E E E E E E E E
||------0-------0---|-------2-(2)-------|-------3-(3)-------|-----------0-----|
||o---2---2---2---2-|-----2---------2---|-----3-------3-----|-------------3-2-|
||--2-------0-------|---2-------------2-|---4-----------4---|-4-2-0---2-------|
||------------------|-4-----------4-----|-5---------------5-|-------2---------|
||o-----------------|-------------------|-------------------|-----------------|
||------------------|-------------------|-------------------|-----------------|
|
|   E E E E E E E E   E E E E +E  E E E   E E E E +E  E E E   E E E E E E E E
||--0-0-0-0-3-3-3-3-|-2-2-2-2-(2)-2-2-2-|-3-3-3-3-(3)-3-3-3-|-3-3-3-0-0-0-0-0-|
||o-2-2-2-2-0-0-0-0-|-2-2-2-2-(2)-2-2-2-|-0-0-0-0-(0)-0-0-0-|-0-0-0-2-2-2-2-2-|
||--2-2-2-2-0-0-0-0-|-2-2-2-2-(2)-2-2-2-|-0-0-0-0-(0)-0-0-0-|-0-0-0-2-2-2-2-2-|
||--2-2-2-2-0-0-0-0-|-4-4-4-4-(4)-4-4-4-|-0-0-0-0-(0)-0-0-0-|-0-0-0-2-2-2-2-2-|
||o-0-0-0-0-2-2-2-2-|-4-4-4-4-(4)-4-4-4-|-2-2-2-2-(2)-2-2-2-|-2-2-2-0-0-0-0-0-|
||----------3-3-3-3-|-2-2-2-2-(2)-2-2-2-|-3-3-3-3-(3)-3-3-3-|-3-3-3-----------|


  A       G         F#m                 G                         A
  E E E E E E E E   E E E E +E  E E E   E E E E +E  E E E   E E E E E E E E
|-----0-------0---|-------2-(2)-------|-------3-(3)-------|-----------0------||
|---2---2---2---2-|-----2---------2---|-----3-------3-----|-------------3-2--||
|-2-------0-------|---2-------------2-|---4-----------4---|-4-2-0---2--------||
|-----------------|-4-----------4-----|-5---------------5-|-------2----------||
|-----------------|-------------------|-------------------|------------------||
|-----------------|-------------------|-------------------|------------------||
|
| E E E E E E E E   E E E E +E  E E E   E E E E +E  E E E   E E E E E E E E
|-0-0-0-0-3-3-3-3-|-2-2-2-2-(2)-2-2-2-|-3-3-3-3-(3)-3-3-3-|-3-3-3-0-0-0-0-0--||
|-2-2-2-2-0-0-0-0-|-2-2-2-2-(2)-2-2-2-|-0-0-0-0-(0)-0-0-0-|-0-0-0-2-2-2-2-2--||
|-2-2-2-2-0-0-0-0-|-2-2-2-2-(2)-2-2-2-|-0-0-0-0-(0)-0-0-0-|-0-0-0-2-2-2-2-2--||
|-2-2-2-2-0-0-0-0-|-4-4-4-4-(4)-4-4-4-|-0-0-0-0-(0)-0-0-0-|-0-0-0-2-2-2-2-2--||
|-0-0-0-0-2-2-2-2-|-4-4-4-4-(4)-4-4-4-|-2-2-2-2-(2)-2-2-2-|-2-2-2-0-0-0-0-0--||
|---------3-3-3-3-|-2-2-2-2-(2)-2-2-2-|-3-3-3-3-(3)-3-3-3-|-3-3-3------------||


 2nd & 4th Verses
  A       G         F#m                 G                         A
  E E E E E E E E   E E E E +E  E E E   E E E E +E  E E E   E E E E E E E E
|-----0-------0---|-------2-(2)-------|-------3-(3)-------|-----------0------|
|---2---2---2---2-|-----2---------2---|-----3-------3-----|-------------3-2--|
|-2-------0-------|---2-------------2-|---4-----------4---|-4-2-0---2--------|
|-----------------|-4-----------4-----|-5---------------5-|-------2----------|
|-----------------|-------------------|-------------------|------------------|
|-----------------|-------------------|-------------------|------------------|
|
| E E E E E E E E   E E E E +E  E E E   E E E E +E  E E E   E E E E E E E E
|-0-0-0-0-3-3-3-3-|-2-2-2-2-(2)-2-2-2-|-3-3-3-3-(3)-3-3-3-|-3-3-3-0-0-0-0-0--|
|-2-2-2-2-0-0-0-0-|-2-2-2-2-(2)-2-2-2-|-0-0-0-0-(0)-0-0-0-|-0-0-0-2-2-2-2-2--|
|-2-2-2-2-0-0-0-0-|-2-2-2-2-(2)-2-2-2-|-0-0-0-0-(0)-0-0-0-|-0-0-0-2-2-2-2-2--|
|-2-2-2-2-0-0-0-0-|-4-4-4-4-(4)-4-4-4-|-0-0-0-0-(0)-0-0-0-|-0-0-0-2-2-2-2-2--|
|-0-0-0-0-2-2-2-2-|-4-4-4-4-(4)-4-4-4-|-2-2-2-2-(2)-2-2-2-|-2-2-2-0-0-0-0-0--|
|---------3-3-3-3-|-2-2-2-2-(2)-2-2-2-|-3-3-3-3-(3)-3-3-3-|-3-3-3------------|


  A       G         F#m                 G
  E E E E E E E E   E E E E +E  E E E   W          +W
|-----0-------0---|-------2-(2)-------|-3--------|-(3)----||
|---2---2---2---2-|-----2---------2---|-0--------|-(0)----||
|-2-------0-------|---2-------------2-|-0--------|-(0)----||
|-----------------|-4-----------4-----|-0--------|-(0)----||
|-----------------|-------------------|-2--------|-(2)----||
|-----------------|-------------------|-3--------|-(3)----||
|
| E E E E E E E E   E E E E +E  E E E   W          +W
|-0-0-0-0-3-3-3-3-|-2-2-2-2-(2)-2-2-2-|-3--------|-(3)----||
|-2-2-2-2-0-0-0-0-|-2-2-2-2-(2)-2-2-2-|-0--------|-(0)----||
|-2-2-2-2-0-0-0-0-|-2-2-2-2-(2)-2-2-2-|-0--------|-(0)----||
|-2-2-2-2-0-0-0-0-|-4-4-4-4-(4)-4-4-4-|-0--------|-(0)----||
|-0-0-0-0-2-2-2-2-|-4-4-4-4-(4)-4-4-4-|-2--------|-(2)----||
|---------3-3-3-3-|-2-2-2-2-(2)-2-2-2-|-3--------|-(3)----||


 Chorus
  $
  Asus2   Gadd9     F#m                 Gadd9                     A
  E E E E E E E E   E E E E +E  E E E   E E E E +E  E E E   E E E E +E  E E E
|-0-0-0-0---------|-2-2-2-2-(2)-2-2-2-|-------------------|-------0-(0)-0------|
|-0-0-0-0-0-0-0-0-|-2-2-2-2-(2)-2-2-2-|-0-0-0-0-(0)-0-0-0-|-0-0-0-2-(2)---3p2--|
|-2-2-2-2-2-2-2-2-|-2-2-2-2-(2)-2-2-2-|-2-2-2-2-(2)-2-2-2-|-2-2-2-2-(2)--------|
|-2-2-2-2-0-0-0-0-|-4-4-4-4-(4)-4-4-4-|-0-0-0-0-(0)-0-0-0-|-0-0-0-2-(2)--------|
|-0-0-0-0---------|-------------------|-------------------|-------0-(0)--------|
|---------3-3-3-3-|-2-2-2-2-(2)-2-2-2-|-3-3-3-3-(3)-3-3-3-|-3-3-3--------------|
|
| E E E E E E E E   E E E E +E  E E E   E E E E +E  E E E   E E E E +E  E E E
|-0-0-0-0---------|-2-2-2-2-(2)-2-2-2-|-------------------|-------0-(0)-0-0-0--|
|-0-0-0-0-0-0-0-0-|-2-2-2-2-(2)-2-2-2-|-0-0-0-0-(0)-0-0-0-|-0-0-0-2-(2)-2-2-2--|
|-2-2-2-2-2-2-2-2-|-2-2-2-2-(2)-2-2-2-|-2-2-2-2-(2)-2-2-2-|-2-2-2-2-(2)-2-2-2--|
|-2-2-2-2-0-0-0-0-|-4-4-4-4-(4)-4-4-4-|-0-0-0-0-(0)-0-0-0-|-0-0-0-2-(2)-2-2-2--|
|-0-0-0-0---------|-------------------|-------------------|-------0-(0)-0-0-0--|
|---------3-3-3-3-|-2-2-2-2-(2)-2-2-2-|-3-3-3-3-(3)-3-3-3-|-3-3-3--------------|


  Asus2   Gadd9     F#m                 Gadd9                     A
  E E E E E E E E   E E E E +E  E E E   E E E E +E  E E E   E E E E +E  E E E
|-0-0-0-0---------|-2-2-2-2-(2)-2-2-2-|-------------------|-------0-(0)-0------|
|-0-0-0-0-0-0-0-0-|-2-2-2-2-(2)-2-2-2-|-0-0-0-0-(0)-0-0-0-|-0-0-0-2-(2)---3p2--|
|-2-2-2-2-2-2-2-2-|-2-2-2-2-(2)-2-2-2-|-2-2-2-2-(2)-2-2-2-|-2-2-2-2-(2)--------|
|-2-2-2-2-0-0-0-0-|-4-4-4-4-(4)-4-4-4-|-0-0-0-0-(0)-0-0-0-|-0-0-0-2-(2)--------|
|-0-0-0-0---------|-------------------|-------------------|-------0-(0)--------|
|---------3-3-3-3-|-2-2-2-2-(2)-2-2-2-|-3-3-3-3-(3)-3-3-3-|-3-3-3--------------|
|
| E E E E E E E E   E E E E +E  E E E   E E E E +E  E E E   E E E E +E  E E E
|-0-0-0-0---------|-2-2-2-2-(2)-2-2-2-|-------------------|-------0-(0)-0-0-0--|
|-0-0-0-0-0-0-0-0-|-2-2-2-2-(2)-2-2-2-|-0-0-0-0-(0)-0-0-0-|-0-0-0-2-(2)-2-2-2--|
|-2-2-2-2-2-2-2-2-|-2-2-2-2-(2)-2-2-2-|-2-2-2-2-(2)-2-2-2-|-2-2-2-2-(2)-2-2-2--|
|-2-2-2-2-0-0-0-0-|-4-4-4-4-(4)-4-4-4-|-0-0-0-0-(0)-0-0-0-|-0-0-0-2-(2)-2-2-2--|
|-0-0-0-0---------|-------------------|-------------------|-------0-(0)-0-0-0--|
|---------3-3-3-3-|-2-2-2-2-(2)-2-2-2-|-3-3-3-3-(3)-3-3-3-|-3-3-3--------------|


                               To Coda
  Asus2             F#m
  E E E E E E E E   E E E E +E  E E E
|-0-0-0-0---------|-2-2-2-2-(2)-2-2-2--|
|-0-0-0-0-0-0-0-0-|-2-2-2-2-(2)-2-2-2--|
|-2-2-2-2-2-2-2-2-|-2-2-2-2-(2)-2-2-2--|
|-2-2-2-2-0-0-0-0-|-4-4-4-4-(4)-4-4-4--|
|-0-0-0-0---------|--------------------|
|---------3-3-3-3-|-2-2-2-2-(2)-2-2-2--|
|
| E E E E E E E E   E E E E +E  E E E
|-0-0-0-0---------|-2-2-2-2-(2)-2-2-2--|
|-0-0-0-0-0-0-0-0-|-2-2-2-2-(2)-2-2-2--|
|-2-2-2-2-2-2-2-2-|-2-2-2-2-(2)-2-2-2--|
|-2-2-2-2-0-0-0-0-|-4-4-4-4-(4)-4-4-4--|
|-0-0-0-0---------|--------------------|
|---------3-3-3-3-|-2-2-2-2-(2)-2-2-2--|


  E                    Asus2
   W                    W
|-^0-----------------|-^0----------------||
|-^0-----------------|-^0---------------o||
|-^1-----------------|-^2----------------||
|-^2-----------------|-^2----------------||
|-^2-----------------|-^0---------------o||
|-^0-----------------|-------------------||
|
|  E E E E +E  E E E    E E E E E E E E
|--0-0-0-0-(0)-0-0-0-|--0-0-0-----0-0----||
|--0-0-0-0-(0)-0-0-0-|--0-0-0-----0-0---o||
|--1-1-1-1-(1)-1-1-1-|--2-2-4p2-2-2-4p2--||
|--2-2-2-2-(2)-2-2-2-|--2-2-2-----2-2----||
|--2-2-2-2-(2)-2-2-2-|--0-0-0-----0-0---o||
|--0-0-0-0-(0)-0-0-0-|-------------------||


 Bridge
  Dsus2   A         Dsus2   A         Dsus2
  E E E E E E E E   E E E E E E E E   E E E E +E  E Q    E E E E +E  E Q
|-0-0-0-0-0-0-0-0-|-0-0-0-0-0-0-0-0-|------------------|-------------------|
|-3-3-3-3-2-2-2-2-|-3-3-3-3-2-2-2-2-|------------------|-------------------|
|-2-2-2-2-2-2-2-2-|-2-2-2-2-2-2-2-2-|-----2-1-(1)------|-----2-1-(1)-------|
|-0-0-0-0-2-2-2-2-|-0-0-0-0-2-2-2-2-|-0-2---------4-2--|-0-2---------4-2---|
|---------0-0-0-0-|---------0-0-0-0-|------------------|-------------------|
|-----------------|-----------------|------------------|-------------------|
|
| E E E E E E E E   E E E E E E E E   E E E E +E  E Q    E E E E +E  E Q
|-0-0-0-0-0-0-0-0-|-0-0-0-0-0-0-0-0-|-0-0-0-0-(0)-0-0--|-0-0-0-0-(0)-0-0---|
|-3-3-3-3-2-2-2-2-|-3-3-3-3-2-2-2-2-|-3-3-3-3-(3)-3-3--|-3-3-3-3-(3)-3-3---|
|-2-2-2-2-2-2-2-2-|-2-2-2-2-2-2-2-2-|-2-2-2-2-(2)-2-2--|-2-2-2-2-(2)-2-2---|
|-0-0-0-0-2-2-2-2-|-0-0-0-0-2-2-2-2-|-0-0-0-0-(0)-0-0--|-0-0-0-0-(0)-0-0---|
|---------0-0-0-0-|---------0-0-0-0-|------------------|-------------------|
|-----------------|-----------------|------------------|-------------------|


  Dsus2   A         Dsus2   A         Dsus2
  E E E E E E E E   E E E E E E E E   E E E E +E  E Q    E E E E +E  E Q
|-0-0-0-0-0-0-0-0-|-0-0-0-0-0-0-0-0-|------------------|-------------------|
|-3-3-3-3-2-2-2-2-|-3-3-3-3-2-2-2-2-|------------------|-------------------|
|-2-2-2-2-2-2-2-2-|-2-2-2-2-2-2-2-2-|-----2-1-(1)------|-----2-1-(1)-------|
|-0-0-0-0-2-2-2-2-|-0-0-0-0-2-2-2-2-|-0-2---------4-2--|-0-2---------4-2---|
|---------0-0-0-0-|---------0-0-0-0-|------------------|-------------------|
|-----------------|-----------------|------------------|-------------------|
|
| E E E E E E E E   E E E E E E E E   E E E E +E  E Q    E E E E +E  E Q
|-0-0-0-0-0-0-0-0-|-0-0-0-0-0-0-0-0-|-0-0-0-0-(0)-0-0--|-0-0-0-0-(0)-0-0---|
|-3-3-3-3-2-2-2-2-|-3-3-3-3-2-2-2-2-|-3-3-3-3-(3)-3-3--|-3-3-3-3-(3)-3-3---|
|-2-2-2-2-2-2-2-2-|-2-2-2-2-2-2-2-2-|-2-2-2-2-(2)-2-2--|-2-2-2-2-(2)-2-2---|
|-0-0-0-0-2-2-2-2-|-0-0-0-0-2-2-2-2-|-0-0-0-0-(0)-0-0--|-0-0-0-0-(0)-0-0---|
|---------0-0-0-0-|---------0-0-0-0-|------------------|-------------------|
|-----------------|-----------------|------------------|-------------------|


  Gadd9   F#m       E                 Dsus2
  Gtrs I, II
  E E E E E E E E   E E E E E E E E   +E  E E E +E  E Q    E E E E +E  E Q
|---------2-2-2-2-|-0-0-0-0-0-0-0-0-|-(0)----------------|-------------------|
|-0-0-0-0-2-2-2-2-|-0-0-0-0-0-0-0-0-|-(0)----------------|-------------------|
|-2-2-2-2-2-2-2-2-|-1-1-1-1-1-1-1-1-|-(1)---2-1-(1)------|-----2-1-(1)-------|
|-0-0-0-0-4-4-4-4-|-2-2-2-2-2-2-2-2-|-(2)-2---------4-2--|-0-2---------4-2---|
|-----------------|-2-2-2-2-2-2-2-2-|--------------------|-------------------|
|-3-3-3-3-2-2-2-2-|-0-0-0-0-0-0-0-0-|--------------------|-------------------|
|
| E E E E E E E E   E E E E E E E E    E  E E E +E  E Q    E E E E +E  E Q
|---------2-2-2-2-|-0-0-0-0-0-0-0-0-|--0--0-0-0-(0)-0-0--|-0-0-0-0-(0)-0-0---|
|-0-0-0-0-2-2-2-2-|-0-0-0-0-0-0-0-0-|--3--3-3-3-(3)-3-3--|-3-3-3-3-(3)-3-3---|
|-2-2-2-2-2-2-2-2-|-1-1-1-1-1-1-1-1-|--2--2-2-2-(2)-2-2--|-2-2-2-2-(2)-2-2---|
|-0-0-0-0-4-4-4-4-|-2-2-2-2-2-2-2-2-|--0--0-0-0-(0)-0-0--|-0-0-0-0-(0)-0-0---|
|-----------------|-2-2-2-2-2-2-2-2-|--------------------|-------------------|
|-3-3-3-3-2-2-2-2-|-0-0-0-0-0-0-0-0-|--------------------|-------------------|


                                                            D.S. al Coda
  Gadd9             F#m               E
  E E E E E E E E   E E E E E E E E   E E E E E E E E   E E E E E E E E
|-----------------|-2-2-2-2-2-2-2-2-|-0-0-0-0-0-0-0-0-|-0-0-0-0-0-0-0-0--||
|-0-0-0-0-0-0-0-0-|-2-2-2-2-2-2-2-2-|-0-0-0-0-0-0-0-0-|-0-0-0-0-0-0-0-0--||
|-2-2-2-2-2-2-2-2-|-2-2-2-2-2-2-2-2-|-1-1-1-1-1-1-1-1-|-1-1-1-1-1-1-1-1--||
|-0-0-0-0-0-0-0-0-|-4-4-4-4-4-4-4-4-|-2-2-2-2-2-2-2-2-|-2-2-2-2-2-2-2-2--||
|-----------------|-----------------|-2-2-2-2-2-2-2-2-|-2-2-2-2-2-2-2-2--||
|-3-3-3-3-3-3-3-3-|-2-2-2-2-2-2-2-2-|-0-0-0-0-0-0-0-0-|-0-0-0-0-0-0-0-0--||


                                      Outro
  &
  E                 Asus2              A  Asus2      Dsus2
  Gtr I
  W                 E E E E E E E E    Q  E E +E  Q  E   +E  E E E +E  E E E
|-0---------------|-0-0-0-0-0-0-0-0-||-0--0-0-(0)-0--0-|-(0)-0-0-0-(0)-0-0-0--|
|-0---------------|-0-0-0-0-0-0-0-0-||-2--0-0-(0)-0--3-|-(3)-3-3-3-(3)-3-3-3--|
|-1---------------|-2-2-2-2-2-2-2-2-||-2--2-2-(2)-2--2-|-(2)-2-2-2-(2)-2-2-2--|
|-2---------------|-2-2-2-2-2-2-2-2-||-2--2-2-(2)-2--0-|-(0)-0-0-0-(0)-0-0-0--|
|-2---------------|-0-0-0-0-0-0-0-0-||-0--0-0-(0)-0----|----------------------|
|-0---------------|-----------------||-----------------|----------------------|
|
| Gtr II
| E E E E E E E E   E E E E E E E E    Q  E E +E  Q  E   +E  E E E +E  E E E
|-0-0-0-0-0-0-0-0-|-0-0-0-0-0-0-0-0-||-0--0-0-(0)-0--0-|-(0)-0-0-0-(0)-0-0-0--|
|-0-0-0-0-0-0-0-0-|-0-0-0-0-0-0-0-0-||-2--0-0-(0)-0--3-|-(3)-3-3-3-(3)-3-3-3--|
|-1-1-1-1-1-1-1-1-|-2-2-2-2-2-2-2-2-||-2--2-2-(2)-2--2-|-(2)-2-2-2-(2)-2-2-2--|
|-2-2-2-2-2-2-2-2-|-2-2-2-2-2-2-2-2-||-2--2-2-(2)-2--0-|-(0)-0-0-0-(0)-0-0-0--|
|-2-2-2-2-2-2-2-2-|-0-0-0-0-0-0-0-0-||-0--0-0-(0)-0----|----------------------|
|-0-0-0-0-0-0-0-0-|-----------------||-----------------|----------------------|


  G                         A              Asus2      Dsus2
  Gtrs I, II
  E E E E +E  E E E   E E E E E E E E   Q  E E +E  Q  E
|-3-3-3-3-(3)-3-3-3-|-3-3-3-0-0-0-0-0-|-0--0-0-(0)-0--0-|
|-0-0-0-0-(0)-0-0-0-|-0-0-0-2-2-2-3-2-|-2--0-0-(0)-0--3-|
|-0-0-0-0-(0)-0-0-0-|-0-0-0-2-2-2-2-2-|-2--2-2-(2)-2--2-|
|-0-0-0-0-(0)-0-0-0-|-0-0-0-2-2-2-2-2-|-2--2-2-(2)-2--0-|
|-2-2-2-2-(2)-2-2-2-|-2-2-2-0-0-0-0-0-|-0--0-0-(0)-0----|
|-3-3-3-3-(3)-3-3-3-|-3-3-3-----------|-----------------|


                        G                         A
  +E  E E E +E  E E E   E E E E +E  E E E   E E E E E E E E
|-(0)-0-0-0-(0)-0-0-0-|-3-3-3-3-(3)-3-3-3-|-3-3-3-0-0-0-0-0-*|
|-(3)-3-3-3-(3)-3-3-3-|-0-0-0-0-(0)-0-0-0-|-0-0-0-2-2-2-3-2-*|
|-(2)-2-2-2-(2)-2-2-2-|-0-0-0-0-(0)-0-0-0-|-0-0-0-2-2-2-2-2-*|
|-(0)-0-0-0-(0)-0-0-0-|-0-0-0-0-(0)-0-0-0-|-0-0-0-2-2-2-2-2-*|
|---------------------|-2-2-2-2-(2)-2-2-2-|-2-2-2-0-0-0-0-0-*|
|---------------------|-3-3-3-3-(3)-3-3-3-|-3-3-3-----------*|


Duration Legend
---------------
W - whole; H - half; Q - quarter; E - 8th; S - 16th; T - 32nd; X - 64th; a - acciaccatura
+ - note tied to previous; . - note dotted; .. - note double dotted
Uncapitalized letters represent notes that are staccato (1/2 duration)
Irregular groupings are notated above the duration line
Duration letters will always appear directly above the note/fret number it represents the
duration for.  Duration letters with no fret number below them represent rests.  Multi-
bar rests are notated in the form Wxn, where n is the number of bars to rest for.  Low
melody durations appear below the staff

Tablature Legend
----------------
 h   - hammer-on
 p   - pull-off
 b   - bend
 pb  - pre-bend
 r   - bend release (if no number after the r, then release immediately)
 /\  - slide into or out of (from/to "nowhere")
 s   - legato slide
 S   - shift slide
  - natural harmonic
[n]  - artificial harmonic
n(n) - tapped harmonic
 ~   - vibrato
 tr  - trill
 T   - tap
 TP  - trem. picking
 PM  - palm muting
\n/  - tremolo bar dip; n = amount to dip
 \n  - tremolo bar down
 n/  - tremolo bar up
/n\  - tremolo bar inverted dip
 =   - hold bend; also acts as connecting device for hammers/pulls
 <>  - volume swell (louder/softer)
 x   - on rhythm slash represents muted slash
 o   - on rhythm slash represents single note slash

Misc Legend
-----------
 |  - bar
||  - double bar
||o - repeat start
o|| - repeat end
*|  - double bar (ending)
 :  - bar (freetime)
 $  - Segno
 &  - Coda
Tempo markers -  = BPM(8/16=s8/s16), where s8 = swing 8ths, s16 = swing 16ths

            
            
Suggest correction
Creating personal tab
Creating personal tab
You can edit any tab online and save it as your Personal.

You can edit, replace or remove any tab part or add personal notes – all changes will be seen only by you.

Personal tabs can be accessed anytime from any device, even offline.
Learn more »
Give kudos to tab author, rate the tab!
1 2 3 4 5
comments
print report bad tab
guest
You may want to rate the tab now too:
select rating
Wanna post a correction for this tab? Suggest correction